Cifra Club

My Love

Little Texas

Cifrado: Principal (guitarra y guitarra eléctrica)
Selo Cifra Club: esta cifra foi revisada para atender aos critérios oficiais da nossa Equipe de Qualidade.
tono: A
[Intro] A  C#m  D  E  D
        A  C#m  D  E  D

            A               C#m                 D     E  D
Get on your mark, get set...ready or not here i come
            A                        C#m                  D     E  D
You've been lookin' for a love well, honey i can give you some
          E
When your world is standin still i can turn around
         D                               E
Put your head up in clouds and pick your feet off the ground

   A              C#m                   D
My love...are you ready for my love, my love
   E                          A
My love, my love is ready for you
                        C#m               D
If you're lookin' for a heart that always true
        B
Only to you
        D        E                          A
Then my love, my love, my love is ready for you

                A               C#m                 D     E  D
Girl, i've heard it said that love is food for the soul
        A                      C#m                  D     E  D
I've see the hunger in your eyes burnin' out of control
    E
My love is over flowin' from a lovin' cup
             D                     E
Girl, i know you're down but love will lift you up

   A              C#m                   D
My love...are you ready for my love, my love
   E                          A
My love, my love is ready for you
                        C#m               D
If you're lookin' for a heart that always true
        B
Only to you
        D        E                          A
Then my love, my love, my love is ready for you

[Solo] A  C#m  D  E  A  C#m  D  Bm

[Tab - Solo]

E|----------------------7-5-----------------|
B|------------------5-5-----3---------------|
G|-4/6--6/4p2--4/6--------------------------|
D|------------------------------------------|
A|------------------------------------------|
E|------------------------------------------|

E|-5/10-10--9h10p9p7------------------------|
B|-------------------10-9h10p9p7------------|
G|-------------------------------9-7h9p7p6--|
D|------------------------------------------|
A|------------------------------------------|
E|------------------------------------------|

E|-----------------7-5----------------------|
B|-------------5-5-----3--------------------|
G|-6/4p2--4/6-------------------------------|
D|------------------------------------------|
A|------------------------------------------|
E|------------------------------------------|

E|-------------------------------------------|
B|-10-9h10p9p7-------------------------------|
G|--------------9-7h9p7p6--------------------|
D|-------------------------9-7-6-------------|
A|-------------------------------------------|
E|-------------------------------------------|

     E
My love is over flowin' from a lovin' cup
             D                        E
Girl, i know you're down but love will lift you up

   B              D#m                   E
My love...are you ready for my love, my love
   F#                         B
My love, my love is ready for you
                        D#m               E
If you're lookin' for a heart that always true
        C#
Only to you
        E        F#                         B   D#m  E
Then my love, my love, my love is ready for you
   F#                         B    D#m  E
My love, my love is ready for you
   F#                         B    D#m  E
My love, my love is ready for you
Otros videos de esta canción
    28.486 exhibiciones
      • ½ Tono
      • A
      • Bb
      • B
      • C
      • Db
      • D
      • Eb
      • E
      • F
      • F#
      • G
      • Ab
    • Agregar a la lista

    Afinación de cifrado

    Afinador online

      OK