Cifra Club

No te extraño

Litzy

Cifrado: Principal (guitarra y guitarra eléctrica)
tono: Db
E|---------------1-1-1--4-4-4----------------1-1-1--4-4-4-|
B|-2-2-2--4-4-4----------------2-2-2--4-4-4---------------|
G|--------------------------------------------------------|
D|--------------------------------------------------------|
A|--------------------------------------------------------|
E|--------------------------------------------------------|

E|---------------1-1-1--2-2-2-----------------------2-2-2-|
B|-2-2-2--4-4-4----------------4-4-4--4-4-4--4-4-4--------|
G|--------------------------------------------------------|
D|--------------------------------------------------------|
A|--------------------------------------------------------|
E|--------------------------------------------------------|
Compositor no encontrado.
2 vistas
    • ½ Tono
    • A
    • Bb
    • B
    • C
    • Db
    • D
    • Eb
    • E
    • F
    • F#
    • G
    • Ab
  • Agregar a la lista

    0 comentarios

    Ver todos los comentarios

    ¿Lograste tocar?

    0 Tocaron 0 Aún no

    ¡Graba un video tocando No te extraño y envíanoslo!

    00:00 / 00:00
    Otros videos de esta canción
    Repetir Calidad Automático
    Otros videos de esta canción
    00:00 / 00:00
    Automático
    OK