Cifra Club

All Torn Down

The Living End

Cifrado: Principal (guitarra y guitarra eléctrica)
tono: E
 |-------------------------------------------------------------------| 
|----------5---------------5---------------5------------------------| 
|------6-----6---------6-----6---------6-----6-------------5--------| 
|----6---6-----6-----6---6-----6-----6---6-----6-------6-----6------| x whatever 
|--4-------------------------------------------------6---6-----6--6-| 
|----------------0-5-------------0-4-------------4-4----------------| 
 
|--4-6--4-4-4-4------------------5------5------------------------------| 
|--5-5--4-5-5-5------------------5--------5----------------------------| 
|--6-6--4-6-6-6--s6-6-6-4--------6----------6----s9-9-8-6--------------| 
|--6-6--4-6-6-6-----------7-7----7-------------------------------------| 
|--4-4------4-4------------------7----7--------------------------------| 
|--------------------------------5--5----------------------------------| 
That part was off the top of my head but you get the idea.. mess around 
with the chord strumming some, the A chord arpeggiation is just a rough guide 
don't try to pick it. 
 
VERSE 
 
C#m A 
E G# 
Make sure you strum ska style for the first bit 
then arpeggiate the E and stuff around with the 
notes you play 
 
CHORUS 
 
A B E 
 
   Fill 1                         Fill 2 
|-------------------------------------------------------------------| 
|--0h2p0------------------------------------------------------------| 
|--------1-2-1------------------------------------------------------| 
|--------------4-2-----------------2-2-1-1--------------------------| 
|------------------------------------------4-4----------------------| 
|-------------------------------------------------------------------| 
 
BRIDGE 
 
C#m A B 
C#m A B E G# 
 
SOLO 
 
|--------------------| 
|--------------------| 
|----6-4-------------| 
|--------6-7-6-4-----| x2 
|--4-------------7---| 
|--------------------| 
 
|-------------------------------------------------------------------| 
|-------------------------------------------------------------------| 
|----6-4-----------------------------------4---4-6-6-4-4-6-6p4-6----| 
|--------6-7-6-4-7-6-4-7-6-4-7-6-4---7-6-7---6----------------------| 
|--4-------------------------------4--------------------------------| 
|-------------------------------------------------------------------| 
 
|-------------4---5-7s9-7-9-s11-12-11-9---9-11-9h11p9---------------| 
|-4-5-7-4-5-7---7-----------------------9---------------------------| 
|--------------------------------------------------------9----------| 
|-----------------------------------------------------11---11-9-----| 
|-------------------------------------------------------------------| 
|-------------------------------------------------------------------| 
 
|-------------------------------------------------------------------| 
|-----10-9----10-9----10-9----10-9----10-9h10p9---------------------| 
|-----------------------------------------------11------------------| 
|--11------11------11------11------11-------------------------------| 
|-------------------------------------------------------------------| 
|-------------------------------------------------------------------| 
 
|--9----------------------------------------------------------------| 
|----12-10-9h10p9----9----------------------------------------------| 
|-----------------11---11-9-11b12p9---------------------------------| 
|-----------------------------------11-9-11-11-9-9h11---------------| 
|-------------------------------------------------------------------| 
|-------------------------------------------------------------------| 
 
|-------------------------------------------------------------------| 
|-------------------------------------------------------------------| 
|-------------------------------------------------------------------| 
|--9s11s9-9-9-9p7-7-7--7-6-4-2s4------------------------------------| 
|-------------------------------------------------------------------| 
|-------------------------------------------------------------------| 
 
C#m A 
 
Ahh you get the idea i hope 
the last section might be B G 
though i can't remember anymore 
i lose my head and just start improvising coz playing the same 
thing 1000 times shits me 
 
Well yeah if you need a bigger explanation.. or you want more of the fills 
email me. I also ask that if you put this tab up on a site, can you at least 
credit me for it and not try to pass it off as your own. 
 
See yas
00:00 / 00:00
Otros videos de esta canción
Repetir
Otros videos de esta canción
Composición de Chris Cheney
Colaboración y revisión:
  • Eliakin sá
21 exhibiciones
    • ½ Tono
    • A
    • Bb
    • B
    • C
    • Db
    • D
    • Eb
    • E
    • F
    • F#
    • G
    • Ab
  • Agregar a la lista
    00:00 / 00:00
    OK