Cifra Club

West End Riot

The Living End

Cifrado: Principal (guitarra y guitarra eléctrica)
Selo Cifra Club: esta cifra foi revisada para atender aos critérios oficiais da nossa Equipe de Qualidade.
tono: Em
Intro:

E|-------------------0-7-7-0-7-0--|
B|-8-8-8-7-7-7-8-8----------------|
G|--------------------------------| (x4)
D|--------------------------------|
A|--------------------------------|
E|--------------------------------|


E|------------|
B|------------|
G|------------|
D|------------|
A|------------|
e-pickslide--|


E|-3-2-0----------------------------------------------|
B|-------3-0------------------------------------------|
G|-----------2-0--------------------------------------|
D|---------------4-2----------------------------------|
A|-----------------------2-2-3-3----------2-2-3-3-----|
E|-------------------0-0---------3-2--0-0---------4-3-|
Repeat last section again.

   E
E|--0--|
B|--0--|
G|--1--|
D|--2--|
A|--2--|
E|--0--|


Verse:

  E
E|-------|
B|-5--5--|
G|-4--4--|
D|-2--2--|
A|-------|
E|-------|

E|-------------------|
B|-------------------|
G|-------------------|
D|-------------------|
A|------2-2-3-3------| (x8)
E|--0-0---------3-2--|
/ palm muted.....\

  E  B  C  G
E|-------------|
B|-------------|
G|----4--5-----|
D|-2--4--5--5--|
A|-2--2--3--5--|
E|-0--------3--|


E|-------------------|
B|-------------------|
G|-------------------|
D|-------------------|
A|------2-2-3-3------|
E|--0-0---------3-2--|
/ palm muted.....\


  E  B  C  G
E|-------------|
B|-------------|
G|----4--5-----|
D|-2--4--5--5--|
A|-2--2--3--5--|
E|-0--------3--|


E|-------------------|
B|-------------------|
G|-------------------|
D|-------------------|
A|------2-2-3-3------|
E|--0-0---------3-2--|
/ palm muted.....\



  E  B  C  G
E|-------------|
B|-------------|
G|----4--5-----|
D|-2--4--5--5--|
A|-2--2--3--5--|
E|-0--------3--|

                      E  B    E  B    E  B
E|---------------------------------------------7-7-7-7-|
B|---------------------------------------------7-7-7-7-|
G|---------------------9-------9-------9-------8-8-8-8-|
D|---------------------9--9-9--9--9-9--9--9-9--9-9-9-9-|
A|------2-2-3-3--------7--9-9--7--9-9--7--9-9--9-9-9-9-|
E|--0-0---------3-2-------7-7-----7-7-----7-7--7-7-7-7-|
/ palm muted.....\




Chorus:


  B  E  C  G       B       Bm
E|--------------------------3-3-3-3---|
B|--------------------------3-3-3-3---|
G|-4-----5----------4-4-4-4-4-4-4-4---|
D|-4--2--5--5-(x3)--4-4-4-4-4-4-4-4---| Repeat Section
A|-2--2--3--5-------2-2-2-2-2-2-2-2---|
E|----0-----3-------------------------|
west....

  Bm             E
E|---------2-2-------------0-0-----------0-0--|
B|--------3--3------------0--0----------1--1--|
G|-4-4---4---4-----------1-------------0------|
D|-4-4--4----4----2-2---2-------------2-------|
A|-2-2-2-----2----2-2--2---------3-3-3--------|
E|----------------0-0-0-----------------------|
  we`ll be here...

  G              A     B     C            E
E|----------3-3----------------------------------|
B|---------0--0----------------------------5--5--|
G|--------0-------2-2-2-4-4-4-5-5-5-7-7-7--4--4--|
D|-------0--------2-2-2-4-4-4-5-5-5-7-7-7--2--2--|
A|-2-3--2---------0-0-0-2-2-2-3-3-3-5-5-5--------|
E|-3-3-3-----------------------------------------|
                /pm\  /pm\  /pm\   /pm\

               E
E|--------------0--|
B|--------------0--|
G|-----2-4^-----1--|
D|-2-4------2---2--|
A|--------------2--|
E|--------------0--|


Verse

Chorus



Bridge:

  G   C  G   C  G   C  G   C
E|-----------------------------|
B|-----------------------------|
G|-----5------5------5------5--|
D|-5-5-5--5-5-5--5-5-5--5-5-5--| (x2)
A|-5-5-3--5-5-3--5-5-3--5-5-3--|
E|-3-3----3-3----3-3----3-3----|

  A   D  A   D  A   D
E|----------------------|
B|----------------------|
G|-----7------7------7--|
D|-7-7-7--7-7-7------7--|
A|-7-7-5--7-7-5--7-7-5--|
E|-5-5----5-5----5-5----|

  A   D              A  B  C  E
E|-----------------------------0--0-0-0-0-0-0-0-0--|
B|-----------------------------0--0-0-0-0-0-0-0-0--|
G|-----7--7-7-7-7-----2--4--5--1--1-1-1-1-1-1-1-1--|
D|-7-7-7--7-7-7-7-----2--4--5--2--2-2-2-2-2-2-2-2--|
A|-7-7-5--5-5-5-5-----0--2--3--2--2-2-2-2-2-2-2-2--|
E|-5-5-------------------------0--0-0-0-0-0-0-0-0--|



Solo:
E|----------------------------------------3-3-3-|
B|-----------------8-7--------------------------|
G|-------7-------8--------------3-2-------------|
D|-5-7s8---8-7-5----------0-3-0-----5-4-5-------|
A|----------------------------------------------|
E|----------------------3-----------------------|


e-5-5-5-6-6-6-8-8-8-10-11-10-13-13-13-15-15-15-17-17-17|
B|------------------------------------------------------|
G|------------------------------------------------------|
D|------------------------------------------------------|
A|------------------------------------------------------|
E|------------------------------------------------------|


E|-18-18-18-18h20p18----------------------|
B|----------------------------------------|
G|--------------------5--5s8--7--10s8s10--|
D|--------------------x--x-x--x---x--x----|
A|--------------------3--3s6--5---8s6s10--|
E|----------------------------------------|

E|-------------------------------------10------------|
B|-----------------------------------10--10----------|
G|-13-12---5--5s8--10s8s10--13--12----------12-10-10-|
D|--x--x---x--x-x----x-x-----x---x-------------------|
A|-11-10---3--3s5---8s6s10--11--10-------------------|
E|---------------------------------------------------|


E|-10-10--------------15-----14-----13---12-----11---12---|
B|-------10-----------------------------------------------|
G|----------12-10-10-----0-0----0-0---0-0---0-0----0----0-|
D|--------------------------------------------------------|
A|--------------------------------------------------------|
E|--------------------------------------------------------|

Thats all thats Nathan has figured out so far.


Folled By:

E|-3-2-0------------|
B|-------3-0--------|
G|-----------2-0----|
D|---------------4--| (x2)
A|------------------|
E|------------------|

Last verse:

E|-----------------|
B|-----------------|
G|-----------------|
D|-----------------|
a-7-7-2-2-3-3-5-5-| (x6)
e|-----------------|



This next bit,there is two guitar parts:

Guitar 1:

   E
E|--------------|
B|--------------|
G|--9--9--9--9--|
D|--9--9--9--9-| ect
A|--7--7--7--7--|
E|--------------|

Guitar 2:

e|---------------------------------|
b-8-8-8-8-7-7-7-7-5-5-5-5-3-3-3-3-|
g---------------------------------|(x3)
d---------------------------------|
a---------------------------------|
e|---------------------------------|

   G  B  E
E|--------0----------------|
B|--------0----------------|
G|-----4--1----------------|
D|--5--4--2----------------|
A|--5--2--2----------------|
E|--3-----0-----p| ickslide--|



Last Chorus:


  B  E  C  G       B       Bm
E|--------------------------3-3-3-3---|
B|--------------------------3-3-3-3---|
G|-4-----5----------4-4-4-4-4-4-4-4---|
D|-4--2--5--5-(x3)--4-4-4-4-4-4-4-4---| Repeat Section
A|-2--2--3--5-------2-2-2-2-2-2-2-2---|
E|----0-----3-------------------------|
west....

   A     B     C    D
E|--------------------------|
B|--------------------------|
G|-2-2-2-4-4-4-5-5-5-7-7-7--|
D|-2-2-2-4-4-4-5-5-5-7-7-7--| (x3)l
A|-0-0-0-2-2-2-3-3-3-5-5-5--| *3rd time dont palm mute*
E|--------------------------|
/pm\  /pm\  /pm\   /pm\

  E
E|-0----------(12)---|
B|-0----------(12)---|
G|-1----------(12)---|
D|-2-----------------|
A|-2-----------------|
E|-0-----------------|
Otros videos de esta canción
    6 exhibiciones
      • ½ Tono
      • Am
      • Bbm
      • Bm
      • Cm
      • C#m
      • Dm
      • Ebm
      • Em
      • Fm
      • F#m
      • Gm
      • G#m
    • Agregar a la lista

    Afinação da cifra

    Afinador online

      Ops (: Contenido disponible solo en portugués.
      OK