Cifra Club

Ricardito

Loli Molina

Chords: Principal (acoustic and electric guitars)
tone: G
E|E|-----------------------------------------------------------||

Intro
E|-----------|
B|-----------|
G|--------0--|
D|--2--4-----|
A|-----------|
E|----------0|

Frase1
E|----------------------------------------------|
B|----------------0-----------0------0----------|
G|----------0--2--------0--2------------2--0----|
D|----4----------------------------------------2|
A|----------------------------------------------|
E|--2-----3-----------3------------2---------0--|

Frase2
E|-------------------|
B|-------------------|
G|----0---4---0---0--|
D|--4---4-------4---2|
A|-------------------|
E|-------------------|

E|E|-----------------------------------------------------------||

Intro x8 + Frase1 x4


Frase1 x4
Es verte sin mirar
Decirte sin hablar
Tenerte si no estás
Me pierdo...

Frase1 x4
En los senderos amarillos de tus ojos
La sed que se ahoga en tu piel
Y si el tiempo y la marea hoy me engañan
Cuatro huellas en la arena y nada más

Frase2 x4

Frase1 x4
Es irme más allá
Quedarme en mi lugar
Tenerte si no estás
Me pierdo...

Frase1 x4
En los senderos amarillos de tus ojos
La sed que se ahoga en tu piel
Y si el tiempo y la marea hoy me engañan
Cuatro huellas en la arena y nada más

Frase1 x4
En los senderos amarillos de tus ojos
La sed que se ahoga en tu piel
Y si el tiempo y la marea hoy me engañan
Cuatro huellas en la arena y nada más
00:00 / 00:00
Other videos of this song
Repeat
Other videos of this song
63 views
    • ½ Tone
    • A
    • Bb
    • B
    • C
    • Db
    • D
    • Eb
    • E
    • F
    • F#
    • G
    • Ab
  • Add to list

Afinação da cifra

Afinador online

    00:00 / 00:00
    OK