Cifra Club

Viva Vendetta

Lord Of The Lost

Cifrado: Principal (guitarra y guitarra eléctrica)
Selo Cifra Club: esta cifra foi revisada para atender aos critérios oficiais da nossa Equipe de Qualidade.
tono: Em
E|---------------------------------------|
B|---------------------------------------|
G|---------------------------------------|
C|-0-0-0-0-3-3-3-3/5-5-5-5/7-7-7-0h3h5-5-|
G|-0-0-0-0-3-3-3-3/5-5-5-5/7-7-7-0h3h5-5-|
C|-0-0-0-0-3-3-3-3/5-5-5-5/7-7-7-0h3h5-5-|



[Intro Riff B, Low Gain, Low Distortion] [Intro A]

E|-------------------------------|
B|-------------------------------|
G|-------------------------------|
C|-0-0-0-0-3-3-3-3/5-5-5-5/7-7-7-|
G|-0-0-0-0-3-3-3-3/5-5-5-5/7-7-7-|
C|-0-0-0-0-3-3-3-3/5-5-5-5/7-7-7-|



[Intro Riff C, Medium Gain, High Distortion, GR5FX MeZone (Settings Below)] [Intro B]


E|-------------------------------------------------------------------------------|
B|-------------------------------------------------------------------------------|
G|-------------------------------------------------------------------------------|
D|-0h3h5/7---------------------------------------------------------------0h3h5/7-|
A|-0h3h5/7---------------------------------------------------------------0h3h5/7-|
E|-0h3h5/7--0-0-0--0h10h12-12--0-0-0--0h10h12-12--5-5-5--0h3h5-5--3-3-3--0h3h5/7-|



[Verse Riff A, Low Gain, Low Distortion] [Verse 1] 

E|-------------------------------------------------------------------|
B|-------------------------------------------------------------------|
G|-------------------------------------------------------------------|
D|-0-0-0-0-3-3-3-3/5-5-5-5/7-7-7-7---0-0-0-0-3-3-3-3/5-5-5-5/7-7-7-7-|
A|-0-0-0-0-3-3-3-3/5-5-5-5/7-7-7-7---0-0-0-0-3-3-3-3/5-5-5-5/7-7-7-7-|
E|-0-0-0-0-3-3-3-3/5-5-5-5/7-7-7-7---0-0-0-0-3-3-3-3/5-5-5-5/7-7-7-7-|



[Pre-Chorus Riff A, High Gain, High Distortion, GR5FX MeZone (Settings Below), GR5FX Big Fuzz 
(Settings Below), GR5FX Studio Reverb (Settings Below)] [Pre-Chorus A]

E|---------------|
B|---------------|
G|---------------|
D|---------------|
A|---------------|
E|-8---7---3---5-|



[Main Riff A, Medium Gain, Medium Distortion, GR5FX MeZone (Settings Below) [Chorus A]

E|----------------------------------------------------------------------|
B|----------------------------------------------------------------------|
G|----------------------------------------------------------------------|
D|--------------------------------------------------------------0h3h5/7-|
A|--------------------------------------------------------------0h3h5/7-|
E|-0-0-0--0h10h12-12--0-0-0--0h10h12-12--5-5-5--0h3h5-5--3-3-3--0h3h5/7-|

E|----------------------------------------------------------------------|
B|----------------------------------------------------------------------|
G|----------------------------------------------------------------------|
D|--------------------------------------------------------------0h3h5/7-|
A|--------------------------------------------------------------0h3h5/7-|
E|-0-0-0--0h10h12-12--0-0-0--0h10h12-12--5-5-5--0h3h5-5--3-3-3--0h3h5/7-|



[For this section, the acoustic guitar comes back in, but the hammer-ons and slides are played with the
distorted amp and the MeZone. Keep this in mind. Verse Riff B, Low Gain, Low Distortion
(except for hammer-ons)] [Verse 2]

E|-------------------------------------------------------------------------------|
B|-------------------------------------------------------------------------------|
G|-------------------------------------------------------------------------------|
D|-0-0-0-0-3-3-3-3/5-5-5-5/7-7-7-0h3h5/7---0-0-0-0-3-3-3-3/5-5-5-5/7-7-7-0h3h5/7-|
A|-0-0-0-0-3-3-3-3/5-5-5-5/7-7-7-0h3h5/7---0-0-0-0-3-3-3-3/5-5-5-5/7-7-7-0h3h5/7-|
E|-0-0-0-0-3-3-3-3/5-5-5-5/7-7-7-0h3h5/7---0-0-0-0-3-3-3-3/5-5-5-5/7-7-7-0h3h5/7-|



[Pre-Chorus Riff B, Medium Gain, Medium Distortion, GR5FX MeZone (Settings Below)] [Pre-Chorus B]

E|---------------------------------------------------------------------------------------------------|
B|---------------------------------------------------------------------------------------------------|
G|---------------------------------------------------------------------------------------------------|
D|---------------------------------------------------------------------------------------------------|
A|---------------------------------------------------------------------------------------------------|
C|-8-8-8-8-8-8-8-8-8-8-8-8-7-7-7-7-7-7-7-7-7-7-7-7-3-3-3-3-3-3-3-3-3-3-3-3-5-5-5-5-5-5-5-5-5-5-5-5-5-|



[Pre-Chorus Riff C, Medium Gain, Medium Distortion, GR5FX MeZone (Settings Below)] [Pre-Chorus B]

E|-------------------------------------------------------------------------------------------------|
B|-------------------------------------------------------------------------------------------------|
G|-------------------------------------------------------------------------------------------------|
D|-------------------------------------------------------------------------------------x-x-x-x-x-x-|
A|-------------------------------------------------------------------------------------x-x-x-x-x-x-|
C|-8-8-8-8-8-8-8-8-8-8-8-8-7-7-7-7-7-7-7-7-7-7-7-7-3-3-3-3-3-3-3-3-3-3-3-3-5-5-5-5-5-5-x-x-x-x-x-x-|



[Main Riff A, Medium Gain, Medium Distortion, GR5FX MeZone (Settings Below) [Chorus B]

E|----------------------------------------------------------------------|
B|----------------------------------------------------------------------|
G|----------------------------------------------------------------------|
D|--------------------------------------------------------------0h3h5/7-|
A|--------------------------------------------------------------0h3h5/7-|
E|-0-0-0--0h10h12-12--0-0-0--0h10h12-12--5-5-5--0h3h5-5--3-3-3--0h3h5/7-|

E|----------------------------------------------------------------------|
B|----------------------------------------------------------------------|
G|----------------------------------------------------------------------|
D|--------------------------------------------------------------0h3h5/7-|
A|--------------------------------------------------------------0h3h5/7-|
E|-0-0-0--0h10h12-12--0-0-0--0h10h12-12--5-5-5--0h3h5-5--3-3-3--0h3h5/7-|



[Bridge Riff A, Medium Gain, Medium Distortion, GR5FX MeZone (Settings Below)] [Bridge A]

E|----------------------------------------------------|
B|-------------------------------------------3*-3*-3*-|
G|-------------------------------------------3*-3*-3*-|
D|----------------------------------------------------|
A|----------------------------------------------------|
E|-1b.25-1b.25-1b.25-0---1b.25-1b.25-1b.25-0----------|



[Bridge Riff B, Medium Gain, Medium Distortion, GR5FX MeZone (Settings Below)] [Bridge A]

E|------------------------------------------------|
B|------------------------------------------------|
G|------------------------------------------------|
D|------------------------------------------------|
A|------------------------------------------------|
E|-1b.25-1b.25-1b.25-0---1b.25-1b.25-1b.25--1/12v-|



[Bridge Riff C, Medium Gain, Medium Distortion, GR5FX MeZone (Settings Below)] [Bridge A]

E|------------------------------------------------------------------------------|
B|----------------------3*-3*---------------------------------------------------|
G|----------------------3*-3*-3*------------------------------------------------|
D|----------------------------3*------------------------------------------------|
A|------------------------------------------------------------------------------|
E|-1b.25-1b.25-1b.25-0-------------1b.25-1b.25-1b.25-0--0h3h5/7---8-7-5-3-5-8-7-|



[Bridge Riff D, Low Gain, Low Distortion] [Bridge B] 

E|-------------------------------|
B|-------------------------------|
G|-------------------------------|
C|-0-0-0-0-3-3-3-3/5-5-5-5/7-7-7-|
G|-0-0-0-0-3-3-3-3/5-5-5-5/7-7-7-|
C|-0-0-0-0-3-3-3-3/5-5-5-5/7-7-7-|



[Main Riff A, Medium Gain, Medium Distortion, GR5FX MeZone] [Chorus C]

E|----------------------------------------------------------------------|
B|----------------------------------------------------------------------|
G|----------------------------------------------------------------------|
D|--------------------------------------------------------------0h3h5/7-|
A|--------------------------------------------------------------0h3h5/7-|
E|-0-0-0--0h10h12-12--0-0-0--0h10h12-12--5-5-5--0h3h5-5--3-3-3--0h3h5/7-|

E|----------------------------------------------------------------------|
B|----------------------------------------------------------------------|
G|----------------------------------------------------------------------|
D|--------------------------------------------------------------0h3h5/7-|
A|--------------------------------------------------------------0h3h5/7-|
E|-0-0-0--0h10h12-12--0-0-0--0h10h12-12--5-5-5--0h3h5-5--3-3-3--0h3h5/7-| 



[Outro Riff, Medium Gain, Medium Distortion, GR5FX MeZone] [Outro]

E|------------------------------------------------------------------------------|
B|------------------------------------------------------------------------------|
G|------------------------------------------------------------------------------|
D|------------------------------------------------------------------------------|
A|------------------------------------------------------------------------------|
E|-0-0-0--0h10h12-12---0-0-0-0h10h12-12---0-0-0--0h10h12-12---0-0-0--0h10h12-12-|

E|---------------------------------------------------------------------------|
B|---------------------------------------------------------------------------|
G|---------------------------------------------------------------------------|
D|---------------------------------------------------------------------------|
A|---------------------------------------------------------------------------|
E|-0-0-0--0h10h12-12---0-0-0-0h10h12-12---0-0-0--0h10h12-12---0-0-0--0h3h5/7-|



*************************************************************************************************************



*************************************************************************************************************
Play Order (w/Time Stamps): 

Intro A
Intro B 
Verse 1 
Pre-Chorus A 
Chorus A
Verse 2
Pre-Chorus B 
Chorus B 
Bridge A 
Bridge B 
Chorus C 
Outro 
*************************************************************************************************************
00:00 / 00:00
Otros videos de esta canción
Repetir
Otros videos de esta canción
13 exhibiciones
    • ½ Tono
    • Am
    • Bbm
    • Bm
    • Cm
    • C#m
    • Dm
    • Ebm
    • Em
    • Fm
    • F#m
    • Gm
    • G#m
  • Agregar a la lista

Afinación de cifrado

Afinador online

    00:00 / 00:00
    OK