Cifra Club

Royals

Lorde

Cifrado: Principal (guitarra y guitarra eléctrica)
Selo Cifra Club: esta cifra foi revisada para atender aos critérios oficiais da nossa Equipe de Qualidade.
tono: G
Afinação: D  A  D  G  B  E

[Intro] D5

[Tab - Intro]

   D5
E|------------------------------------------|
B|-3--3--------3--3-----x-------------------|
G|-2--2--------2--2-----x-------------------|
D|-0--0-----x--0--0-----x----x--------------|
A|-------x------------x----x----------------|
E|-0-----x-----0------x---------------------|

[Primeira Parte]

                   D5
I've never seen a diamond in the flesh
          D5
I cut my teeth on wedding rings 

In the movies
              D5
And I'm not proud of my address
                D5
In the torn up town
             D5
No post code envy

[Segunda Parte]

[Tab - Segunda Parte]

Parte 1 de 4 - 2x
   D5
E|------------------------------------------|
B|-3--3--------3--3-----x-------------------|
G|-2--2--------2--2-----x-------------------|
D|-0--0-----x--0--0-----x----x--------------|
A|-------x------------x----x----------------|
E|-0-----x-----0------x---------------------|

Parte 2 de 4
   C9
E|------------------------------------------|
B|-3--3--------3--3-----x-------------------|
G|-0--0--------0--0-----x-------------------|
D|-0--0-----x--0--0-----x----x--------------|
A|-3-----x-----3------x----x----------------|
E|-------x------------x---------------------|

Parte 3 de 4
   G5
E|------------------------------------------|
B|-3--3--------3--3-----x-------------------|
G|-0--0--------0--0-----x-------------------|
D|-0--0-----x--0--0-----x-------------------|
A|-------x------------x---------------------|
E|-5-----x-----5------x----3b---------------|

Parte 1 de 4 - 2x
   D5
E|------------------------------------------|
B|-3--3--------3--3-----x-------------------|
G|-2--2--------2--2-----x-------------------|
D|-0--0-----x--0--0-----x----x--------------|
A|-------x------------x----x----------------|
E|-0-----x-----0------x---------------------|

Parte 2 de 4
   C9
E|------------------------------------------|
B|-3--3--------3--3-----x-------------------|
G|-0--0--------0--0-----x-------------------|
D|-0--0-----x--0--0-----x----x--------------|
A|-3-----x-----3------x----x----------------|
E|-------x------------x---------------------|

Parte 4 de 4
   G5
E|------------------------------------------|
B|-3--3--------x----------------------------|
G|-0--0--------x----------------------------|
D|-0--0-----x--x----------------------------|
A|-------x----------------------------------|
E|-5-----x----------------------------------|

                       D5
But every song's like gold teeth

Grey goose

Trippin' in the bathroom
  D5
Blood stains, ball gowns

Trashin' the hotel room
 C9
We don't care
               G5
We're driving cadillacs in our dreams
                       D5
But everybody's like cristal, maybach

Diamonds on your timepiece
 D5
Jet planes, islands

Tigers on a gold leash
 C9
We don't care
           G5
We aren't caught up in your love affair

[Refrão]

                    D5
And we'll never be royals

It don't run in our blood
              C9
That kind of lux just ain't for us
            G5
We crave a different kind of buzz
                D5
Let me be your ruler

You can call me queen bee
               C9
And baby I'll rule, I'll rule

I'll rule, I'll rule
G5
   Let me live that fantasy

[Primeira Parte]

D5
   My friends

And I we've cracked the code
              D5
We count our dollars 

On the train to the party
         D5
And everyone who knows us knows
                       D5
That we're fine with this
                     D5
We didn't come from money

[Segunda Parte]

                       D5
But every song's like gold teeth

Grey goose

Trippin' in the bathroom
  D5
Blood stains, ball gowns

Trashin' the hotel room
 C9
We don't care
               G5
We're driving cadillacs in our dreams
                       D5
But everybody's like cristal, maybach

Diamonds on your timepiece
 D5
Jet planes, islands

Tigers on a gold leash
 C9
We don't care
           G5
We aren't caught up in your love affair

[Refrão]

                    D5
And we'll never be royals

It don't run in our blood
              C9
That kind of lux just ain't for us
            G5
We crave a different kind of buzz
                D5
Let me be your ruler

You can call me queen bee
               C9
And baby I'll rule, I'll rule

I'll rule, I'll rule
G5
   Let me live that fantasy

[Terceira Parte]

D5
   Oh oh oh
C9
   We're bigger than we ever dreamed
G5
   And I'm in love with being queen
D5
   Oh oh oh
C9
   Life is game without a care
           G5
We aren't caught up in your love affair

[Refrão]

                    D5
And we'll never be royals

It don't run in our blood
              C9
That kind of lux just ain't for us
            G5
We crave a different kind of buzz
                D5
Let me be your ruler

You can call me queen bee
               C9
And baby I'll rule, I'll rule

I'll rule, I'll rule
G5
   Let me live that fantasy
Otros videos de esta canción
    301.844 exhibiciones
    • Simplificar cifrado
      • ½ Tono
      • A
      • Bb
      • B
      • C
      • Db
      • D
      • Eb
      • E
      • F
      • F#
      • G
      • Ab
    • Agregar a la lista

    Afinación de cifrado

    Afinador online

      Capítulos
      • Início
      • Afinação
      • Tocando a música
      • Acorde da Primeira Parte
      • Tocando Primeira Parte
      • Ensinando ritmo padrão
      • Acordes da Segunda Parte
      • Tocando Segunda Parte
      • Ensinando Segunda Parte
      • Acordes do Refrão
      • Tocando Refrão
      • Ensinando ritmo Refrão
      • Tocando Repetição - Final
      • Encerramento
      OK