Cifra Club

La Serenissima

Loreena McKennitt

Cifrado: Principal (guitarra y guitarra eléctrica)
Selo Cifra Club: esta cifra foi revisada para atender aos critérios oficiais da nossa Equipe de Qualidade.
tono: E
G||-2-----------2-0-2-------|---------------2-0-2---------2-||
D||-------------------------|-------------------------------||
A||-0-------0---------------|-----------0-------------------||
E||---------------3-------3-|---3-------------3-------------|| X2

e||-0---0-2-3-0---------0---|---0---0-2-3-0-----------------||
B||---3---------3-0-1-3-----|-----3---------3-0-1-0------(0)||
G||-------------------------|-----------------------2(0h2)--||
D||-------------------------|-------------------------------||
A||-3-----------------------|---3-------------------0-------||
E||---------3---3-------3---|-----------3---3---------------|| X2
Otros videos de esta canción
    6 exhibiciones
      • ½ Tono
      • A
      • Bb
      • B
      • C
      • Db
      • D
      • Eb
      • E
      • F
      • F#
      • G
      • Ab
    • Agregar a la lista

    Afinação da cifra

    Afinador online

      Ops (: Contenido disponible solo en portugués.
      OK