Cifra Club

Suerte he tenido

Los Alegres de La Sierra

Cifrado: Principal (guitarra y guitarra eléctrica)
tono: A

A                                               E7
E|----5-5-5-5----------------------------------5--4-2-4-|
B|-5--7-7-7-7--5--5-5-3-2-5-2--2-2-3-3-5--5--5-7--5-3-5-|
G|-6-----------6--6-6-4-2-6-2--2-2-4-4-6--6--6----------|
D|------------------------------------------------------|
A|------------------------------------------------------|
E|------------------------------------------------------|

      D                                A
E|-4--7-7-7-7--5--5-5-5--4-4-4--2-2-2--0-|
B|-5--9-9-9-9--7--7-7-7--5-5-5--3-3-3--2-|
G|---------------------------------------|
D|---------------------------------------|
A|---------------------------------------|
E|---------------------------------------|

           E7            A
E|-0-0-2-0-4--2--0-2-0-----|
B|-2-2-3-2-5--3--2-3-2-3-2-|
G|---------------------4-2-|
D|-------------------------|
A|-------------------------|
E|-------------------------|

                  A    A --ESTO ES EL ACORDE
E|-0-0-2-2-4-4----5----5-----|
B|----------------5----5-----|
G|----------------6----6-----|
D|----------------7----7-----|
A|----------------7--7-------|
E|-0-0-2-2-4-4--5------------|


A
Suerte he tenido de conocerte
                                  E7
pues yo estaba triste con mi soledad
    D                          A
llegaste a mi vida como una paloma
                   E7              A
me enseñaste el camino a la felicidad


E|-0-0-2-2-4-4---|
B|-2-2-3-3-5-5---|
G|---------------|

 A
Tal vez tu pienses que no te quiero
                    E7
o te quiero yo vacilar
        D        A
pues estoy enamorado
               E7                    A
y quiero que creas que esa es la verdad

 A
Fue aquella noche cuando te ví
                       E7
mi corazón por ti suspiro
 D                       A
tu me mirabas yo me di cuenta
   E7                 A
y cante para ti con Amor

  A
Quiero decirte lo que te quiero
                                  E7
tal vez con el tiempo tu comprobaras
 D                         A
mi amor por siempre es sincero
           E7                  A
y que sin verte ya no puedo estar
Composición de Miranda Baldenebro Benito
2 vistas
    • ½ Tono
    • A
    • Bb
    • B
    • C
    • Db
    • D
    • Eb
    • E
    • F
    • F#
    • G
    • Ab
  • Agregar a la lista

    0 comentarios

    Ver todos los comentarios

    ¿Lograste tocar?

    0 Tocaron 0 Aún no

    ¡Graba un video tocando Suerte he tenido y envíanoslo!

    00:00 / 00:00
    Outros vídeos desta música
    Repetir Calidad Automático
    Outros vídeos desta música
    00:00 / 00:00
    Automático
    OK