Cifra Club

Solo

Los Amantes De Lola

Cifrado: Principal (guitarra y guitarra eléctrica)
tono: Bm
G                  A        Bm 
hay un lugar para dos, no esperas
G             A          F#m    G  
a que llegues otra vez una noche
G              A 
y en el aire hay mas
  Bm         G        A     F#m 
del perfume de tu ausencia


(coro)
G  -A 
solo
  Bm 
aclara la razon
G  -A 
solo
  F#m         G  
decido como soy
G  -A 
solo
  Bm 
yo necesito estar
G  -A 
solo
  F#m          G  
para poder cambiar


(verso A)
hay un lugar donde tu, no esperas
y en silencio me hablan de ti
y en el aire ay mas
del perfume de tu ausencia


(coro)


(solo)
E|-----0---------0---------0---------0-----| 4 times
B|---3---3-----2---2-----3---3-----3---3---|
G|-0-------0-2-------2-4-------4-4-------4-|

E|----------------------------------------------------|
B|-------3---3/5-3---3/5-3-3-------3----------3---3---|
G|---2-4---4-------4---------4-2-4---4----2-4---4---4-|
D|-4------------------------------------4-------------|

E|---------------2/5-3-2-3-2-----14--------------------|
B|-3/5-3---3---3-------------3----*15*10-12-12-10----10|
G|-------4---4------------------------------------11---|
D|-----------------------------------------------------|

E|-------------------*19*-17-15-17-15-14-15-14-12-14-12|
B|----10-12-12-10--------------------------------------|
G|-11-------------11-----------------------------------|
D|-----------------------------------------------------|

E|-10-12-10-------9-10-9----9-10-12-*14*12*14-12-10-12-|
B|----------10/12--------12----------------------------|
G|-----------------------------------------------------|
D|-----------------------------------------------------|

E|-10-9-10-9----9----------------9-10-12-10-9-*14*14*--|
B|-----------12---12-10-12-10-12-----------------------|
G|-----------------------------------------------------|
D|-----------------------------------------------------|



(coro)
G  -A         Bm 
hoy quiero estar solo
G  -A       F#m -G  
voy a estar sin ti
G  -A      Bm 
solo, sin ti
G  -A        F#m -G  
ooooooh, noooooooooooo


para:(BETTY CURIEL)
espero y entiendas que no es por que quiero estar solo
si no por que asi me siento, me siento muy solo y
me gustaria que estuvieras junto a mi.
(preciosa)
00:00 / 00:00
Otros videos de esta canción
Repetir
Otros videos de esta canción
Composición de Los amantes de lola
    • ½ Tono
    • Am
    • Bbm
    • Bm
    • Cm
    • C#m
    • Dm
    • Ebm
    • Em
    • Fm
    • F#m
    • Gm
    • G#m
  • Agregar a la lista

    0 comentarios

    Ver todos los comentarios

    ¿Lograste tocar?

    0 Tocaron 0 Aún no

    ¡Graba un video tocando Solo y envíanoslo!

    00:00 / 00:00
    OK