Cifra Club

Murio La Flor

Los Angeles Negros

Cifrado: Principal (guitarra y guitarra eléctrica)
tono: E (con acordes en la forma de C) Capotraste en 4ª casa
Am                             Dm
  Desde hace tiempo espero yo
        Am              E7 Am
Oir tu voz, sentir tu amor
                       Dm
Y ya no se lo que es reir
         Am E7          Am
No se vivir si tu no estas

                       Dm
Cada rumor que llega a mi
           Am              E7 Am
Me hace sonar que estas aqui
                         Dm
Siento tu cuerpo junto a mi
            Am E7          Am
Y al despertar tu ya no estas

           Dm     G7
Murio la flor en mi
           C     Am
Tu esencia se quedo
        Dm      E7
Y tu risa infantil
           Am    A7
Creo escuchar
             Dm   G7
Las noches frias son
          C      Am
No brilla mas el sol
           Dm      E7
Desde que tu no estas 
           Am
Llorando estoy
             
E|------------------------------------|
B|------------------------------------|
G|------------------------------------|
D|------2-----0-0---------------------|
A|-0-2-3-3-2-0-2-2-3-0-3-0-2----------|
E|------------------------------------|

E|----------------------------------------|
B|----------------------------------------|
G|----------------------------------------|
D|------2-----0-0-----------2-3h-2-0------|
A|-0-2-3-3-2-0-2-2-3-0-3-2-0--------3-2-0-|
E|----------------------4-4---------------|

'Donde estaras
En que otros labios 
Mis caricias dejaras
Mientras que aqui cada recuerdo 
Es un martirio para mi'

           Dm     G7
Murio la flor en mi
           C     Am
Tu esencia se quedo
        Dm      E7
Y tu risa infantil
           Am    A7
Creo escuchar
             Dm   G7
Las noches frias son
          C      Am
No brilla mas el sol
           Dm      E7
Desde que tu no estas 
           Am
Llorando estoy
Composición de Germain De La Fuente / Nano Concha
Colaboración y revisión:
  • Martín Meza
414 vistas
    • ½ Tono
    • A
    • Bb
    • B
    • C
    • Db
    • D
    • Eb
    • E
    • F
    • F#
    • G
    • Ab
  • Agregar a la lista

    0 comentarios

    Ver todos los comentarios

    ¿Lograste tocar?

    0 Tocaron 0 Aún no

    ¡Graba un video tocando Murio La Flor y envíanoslo!

    00:00 / 00:00
    Otros videos de esta canción
    Repetir Calidad Automático
    Otros videos de esta canción
    00:00 / 00:00
    Automático
    OK