Cifra Club

Amor

Los Auténticos Decadentes

Cifrado: Principal (guitarra y guitarra eléctrica)
tono: Am
Intro:

E|---------0---------------0------|
B|-----1-------1-------1-------1--|
G|---2---2---2---2---2---2---2---2| Se repite dos veces
D|--------------------------------| Am
A|-0---------------0--------------|
E|--------------------------------|

   Cansado de buscar, y herido en mil fracasos
E|---------0---------------0------|
B|-----1-------1-------1-------1--|
G|---2---2---2---2---2---2---2---2|
D|--------------------------------| Am
A|-0---------------0--------------|
E|--------------------------------|

   Había decidido caminar en soledad
E|---------1---------------1------|
B|-----3-------3-------3-------3--|
G|---2---2---2---2---2---2---2---2|
D|-0------------------------------| Dm
A|--------------------------------|
E|--------------------------------|

     Sin pena ni pasión y en eso apareciste
E|---------3---------------3------|
B|-----0-------0-------0-------0--|
G|---0---0---0---0---0---0---0---0|
D|--------------------------------|
A|--------------------------------|
E|-3---------------3--------------|

              todo cambió...
E|---------0---------------0------|
B|-----1-------1-------1-------1--|
G|---0---0---0---0---0---0---0---0|
D|--------------------------------|
A|-3---------------3--------------|
E|--------------------------------|



                 Am                       Dm
Me fui acercando a vos con suma precaucion,
             G                          C
midiendo cada faso, retorcido en mi interior,
               Am                    Dm
librandome de miedos y de deudas del ayer
              G                   C
para intentar de nuevo, volver a creer


Am
    Me entregue y no me arrepiento
Dm
nunca estuve asi de contento
Am
    y me paso el dia cantando,
C
   sin pensar hasta cuando...



Am                                  Dm
Amor, cierro los ojos y salto al vacio
G                             C     E
Amor como negarme a tu calido abismo
Am                                Dm
Amor, sutil, narcotico, suave y fragante
G      F                      E
Amor, vuelve a hacer polvo el diamante

Cansado de buscar, y herido en mil fracasos
habia decidido caminar en soledad,
sin penas ni pasion, y en eso apareciste
todo cambio.
Me fui acercando a vos con suma precaucion,
midiendo cada faso, retorcido en mi interior,
librandome de miedos y de deudas del ayer
para intentar de nuevo, volver a creer

Me entregue y no me arrepiento
nunca estuve asi de contento
y me paso el dia cantando,
sin pensar hasta cuando...
Composición de Jorge Serrano
86 vistas
    • ½ Tono
    • Am
    • Bbm
    • Bm
    • Cm
    • C#m
    • Dm
    • Ebm
    • Em
    • Fm
    • F#m
    • Gm
    • G#m
  • Agregar a la lista

    0 comentarios

    Ver todos los comentarios
    00:00 / 00:00
    Outros vídeos desta música
    Repetir Calidad Automático
    Outros vídeos desta música
    00:00 / 00:00
    Automático
    OK