Cifra Club

Bichiluz

Los Auténticos Decadentes

Cifrado: Principal (guitarra y guitarra eléctrica)
tono: Em
Intro: G, Bm, Am C, G, Bm, Am, D y G

E-||----10-8----8-10----10-8----8-------8--------------------------
B-||---------12-------8------12---12-10---12-8-----8---8-----------
G-||--7-------------------------------------------9---9---9/7------
D-||---------------------------------------------------------------
A-||---------------------------------------------------------------
E-||---------------------------------------------------------------


E-||------------7-8-7-10-------12-10-8----8------------
B-||-----7-8-10----------8---8---------12---12-10-12-8-
G-||-7-9-----------------------------------------------
D-||---------------------------------------------------
A-||---------------------------------------------------
E-||---------------------------------------------------


G
Cuando me caigo en una depresion
G
pongo distancia y me empiezo a encerrar
G                                       D
y me pongo a cavar una trinchera emocional


E-||---10-8-7-8-10-----10-8-7-8-7--
B-||-----------------8-------------
G-||-7-----------------------------
D-||-------------------------------
A-||-------------------------------
E-||-------------------------------


G                  C      G
Cuando me siento vacio y solo
G                   C    G         D
como un extraño y ajeno a la realidad
D                             C
pero es si no necesito ni hablar
D                         Am
de pronto venis y me abrazas
D                        G
nadie me comprende como vos
              Bm         Am
Nadie me comprende como vos
C                        G
nadie me comprende como vos
              Bm         Am
nadie me comprende como vos
            D
nadie como vos


E-||--10h12p10----------------------------------------------7---
B-||------------12-10-8-8/10---12---------8-7------8---8/10-----
G-||------------------------------7---7-9-----9-7----7--------7-
D-||------------------------------------------------------------
A-||------------------------------------------------------------
E-||------------------------------------------------------------


E-||-------6h7--10-7-------7h8-7--------------------------------
B-||-----8-----------10-8--------8-------8-7--------------------
G-||-7-9-----------------------------7-9----9-7-----------------
D-||--------------------------------------------10-9------------
A-||------------------------------------------------------------
E-||------------------------------------------------------------

G
Cuando recaigo en una depresion
G
siento una angustia o me viene un bajon
G                                     D
y me empieza a rodear una neblina medieval
G                      C     G
Cuando me aburro de todo un poco
G                      C     G    D
ando amargado y un poco uraño de mas
D                         C
de pronto por algo que decis
     B                      C
me rio y me haces sentir feliz
             D           G
nadie me conmueve como vos
         Bm            Am
Mi bichiluz, mi suave mar
          C              D          G
sos el lugar en donde quiero descansar
              Bm               Am
me haces tan bien, que me hace mal
             C           D           G       Bm      Am       C
me siento fragil por tener a quien amaaaaaaaaaaaaaaaaaaaaaaaaaar


(Los acordes del intro son G, Bm, Am C, G, Bm, Am, D y G)


E-||----10-8----8-10----10-8----8-------8--------------------------
B-||---------12-------8------12---12-10---12-8-----8---8-----------
G-||--7-------------------------------------------9---9---9/7------
D-||---------------------------------------------------------------
A-||---------------------------------------------------------------
E-||---------------------------------------------------------------


E-||------------7-8-7-10-------12-10-8----8------------
B-||-----7-8-10----------8---8---------12---12-10-12-8-
G-||-7-9-----------------------------------------------
D-||---------------------------------------------------
A-||---------------------------------------------------
E-||---------------------------------------------------
Composición de Jorge Serrano
3 vistas
    • ½ Tono
    • Am
    • Bbm
    • Bm
    • Cm
    • C#m
    • Dm
    • Ebm
    • Em
    • Fm
    • F#m
    • Gm
    • G#m
  • Agregar a la lista

    0 comentarios

    Ver todos los comentarios

    ¿Lograste tocar?

    0 Tocaron 0 Aún no

    ¡Graba un video tocando Bichiluz y envíanoslo!

    00:00 / 00:00
    Otros videos de esta canción
    Repetir Calidad Automático
    Otros videos de esta canción
    00:00 / 00:00
    Automático
    OK