Cifra Club

Corazón

Los Auténticos Decadentes

Cifrado: Principal (guitarra y guitarra eléctrica)
tono: G
Intro: G C D

E|-----------------------------------------¬|
B|------3-----3--3---3-------5--5--5------|
G|--4-5-----4--4--4--4----5--5---5----7----|

E|--------10-----10---10---10-------------10---|
B|--10-12------12---12---12----10-8-10-12------|
G|---------------------------------------------|

E|-------------------------------------¬----|
B|--------3--3---3--3----3-----5--5-¬-5--7--|
G|--4/5--------4-------4--4---5--5----7---|

E|--12-12-12---10-10-10---8---8--8-----7-7-7---5-5-5-----5-5-5---2—0/10--|
B|--12-12-12---12-12-12---10--10--10---8-8-8---7-7-7-----3-3-3-----------|
G|-----------------------------------------------------------------------|


G
Yo no sé lo que me pasa 
       C         D
cuando estoy con vos
      G
me hipnotiza tu sonrisa
     C         D
me desarma tu mirada
     G
y de mi no queda nada
      C     D                 G   C D
me derrito  como un hielo al sol.


  G                           Bm
Cuando vamos algún lado nunca elijo yo
            C                        D
porque lo único que quiero es ir contigo
G                        Bm
vivo dando vueltas a tu alrededor  
          C            Bm              D
como un perro abandonado que en la calle te siguió


      G
Pero yo no soy tu prisionero 
           Bm
y no tengo alma de robot
        C                           G
es que hay algo en tu carita que me gusta
       A                      D
que me gusta y se llevo mi corazón. (x2)


G
Puede ser por tu carácter 
  C       D
o mi voluntad
      G
me hipnotiza tu sonrisa
     C         D
me desarma tu mirada
     G
y de mi no queda nada
      C     D                 G   C D
me derrito  como un hielo al sol.


Cuando vamos a algún lado nunca elijo yo...
 
Pero yo no soy tu prisionero...
Composición de Jorge Serrano
Colaboración y revisión:
  • Eric Castro
7.669 vistas
    • ½ Tono
    • A
    • Bb
    • B
    • C
    • Db
    • D
    • Eb
    • E
    • F
    • F#
    • G
    • Ab
  • Agregar a la lista

    0 comentarios

    Ver todos los comentarios

    ¿Lograste tocar?

    3 Tocaron 1 Aún no

    ¡Graba un video tocando Corazón y envíanoslo!

    00:00 / 00:00
    Outros vídeos desta música
    Repetir Calidad Automático
    Outros vídeos desta música
    00:00 / 00:00
    Automático
    OK