Cifra Club

Diosa

Los Auténticos Decadentes

Cifrado: Principal (guitarra y guitarra eléctrica)
tono: Am
INTRO:

C   G    Am   Em   Am   Em   G   (G  -F# -F ) F  (F -G  -C )



C                         G  
Nena, tan linda como una sirena
                      Am 
con la cola llena de arena
                   Em   (E7 )
y perfumada por la sal.


Am                            Em 
Diosa, de pelo negro y piel morena,
                    F      F# 
radiante perla marinera,
          Sim                      [TROMPETA] G|--4-6-7-4--|
como la Venus frente al mar;
E                A           D -E 
milagro de la creación.


A                      F#m 
Era como admirar una Nereida
                      D 
que con su mano se despeina
                         E 
y el viento la vuelve a peinar.


A                          F#m 
Suave, como susurro de tu boca,
                      D 
que cuando mira descoloca
                 E            F -G  
y no se sabe que pensar.


INTER = INTRO


Era como admirar una Nereida
que con su mano se despeina
y el viento la vuelve a peinar.

Dueña de una sonrisa que marea
cuando sus pechos bambolea
como tormenta tropical,
un atentado a la moral.

Nena, tan linda como una sirena
con la cola llena de arena
y perfumada por la sal.

Diosa, de pelo negro y piel morena,
radiante perla marinera,
como la Venus frente al mar...


FINAL:

(Trompeta)


      A                                    F#m                                         ____
E|----12-12-9------------12-12-9------------12-12-9------------12-12-9--------------| |
B|------------10-----------------10-----------------10-----------------10-----------| |
G|---------------9------------------9------------------9------------------9---------| |
D|----------------------------------------------------------------------------------| |
                                                                                           |
      D                                     E                                              |
E|----12-12-9------------12-12-9------------12-12-9------------14-12-14-12-14-12----| |
B|------------10-----------------10-----------------10------------------------------| |
G|---------------9------------------9------------------9----------------------------| |
D|----------------------------------------------------------------------------------| |
                                                                                           |-- x2
      A                                    F#m                                             |
E|----12-12-9------------12-12-9------------12-12-9------------14-12-14-12-14-12----| |
B|------------10-----------------10-----------------10------------------------------| |
G|---------------9------------------9------------------9----------------------------| |
D|----------------------------------------------------------------------------------| |
                                                                                           |
      D                                     E                      A                       |
E|----12-12-9------------12-12-9-----------------------------------------| |
B|------------10-----------------10--------------------------------------| |
G|---------------9------------------9------------------------------------| |
D|--------------------------------------------------------9-10-11--------| |
A|---------------------------------------------9-10-12-13----------12----| |
E|------------------------------------------12---------------------------| ____|



ACORDES UTILIZAC S:

   C     G     Am    Em    F     F#    E     E7    Bm    D    F#m 
E|--0--|--3--|--0--|--0--|--1--|--2--|--0--|--0--|--2--|--2--|--2--|
B|--1--|--0--|--1--|--0--|--1--|--2--|--0--|--3--|--3--|--3--|--2--|
G|--0--|--0--|--2--|--0--|--2--|--3--|--1--|--1--|--4--|--2--|--2--|
D|--2--|--0--|--2--|--2--|--3--|--4--|--2--|--0--|--4--|--0--|--4--|
A|--3--|--2--|--0--|--2--|--3--|--4--|--2--|--2--|--2--|--x--|--4--|
E|--x--|--3--|--x--|--0--|--1--|--2--|--0--|--0--|--x--|--x--|--2--|
Composición de Jorge Serrano
46 vistas
    • ½ Tono
    • Am
    • Bbm
    • Bm
    • Cm
    • C#m
    • Dm
    • Ebm
    • Em
    • Fm
    • F#m
    • Gm
    • G#m
  • Agregar a la lista

    0 comentarios

    Ver todos los comentarios
    00:00 / 00:00
    Outros vídeos desta música
    Repetir Calidad Automático
    Outros vídeos desta música
    00:00 / 00:00
    Automático
    OK