Cifra Club

Tu cárcel

Los Bukis

Cifrado: Principal (guitarra y guitarra eléctrica)
Selo Cifra Club: esta cifra foi revisada para atender aos critérios oficiais da nossa Equipe de Qualidade.
tono: Am
INTRO


E|----------------8--8--8--12--12--8--7--7--------|
B|--8--8------------------------------------10--8-|
G|---------10--9----------------------------------|
D|------------------------------------------------|
A|------------------------------------------------|
E|------------------------------------------------|



E|--7--7--7--10--10--7--8--8--7------8--8--8--8--7---------------7-|
B|-------------------------------10-----------------10--8--8--8----|
G|-----------------------------------------------------------------|
D|-----------------------------------------------------------------|
A|-----------------------------------------------------------------|
E|-----------------------------------------------------------------|




C
Te vas amor

Si así lo quieres
    G
Que puedo yo hacer
        E          Am
Tu vanidad no te deja entender
F            D           G
Que en la pobreza se sabe querer

C
Quiero llorar
                  G
Y me destroza que pienses así
           E          Am
Y mas que ahora me quede sin ti
F        D         G
Me duele lo que tú vas a sufrir

C
Pero recuerda
                    G
Nadie es perfecto y tu lo veras
           E       Am
Más de mil cosas mejores tendrás
F        D          G
Pero un cariño sincero jamás

C
Vete olvidando
                     G
Esto que hoy dejas y que cambiaras
           E       Am
Por la aventura que tu ya veras
F      D        G
Será tu cárcel y nunca saldrás




C
Quiero lloraré
                  G
Y me destroza que pienses así
          E      Am
Y mas que ahora me quede sin ti
F        D         G
Me duele lo que tú vas a sufrir

C
Pero recuerda
                    G
Nadie es perfecto y tu lo veras
           E     Am
Más de mil cosas mejores tendrás
F         D        G
Pero un cariño sincero jamás

C
Vete olvidando
                     G
Esto que hoy dejas y que cambiaras
           E      Am
Por la aventura que tu ya veras
F       D        G
Será tu cárcel y nunca saldrás

C
Pero recuerda
                    G
Nadie es perfecto y tu lo veras
           E     Am
Más de mil cosas mejores tendrás
F         D       G
Pero un cariño sincero jamás

C
Vete olvidando
                     G
Esto que hoy dejas y que cambiaras
           E     Am
Por la aventura que tu ya veras
F      D     G
Será tu cárcel y nunca saldrás...

FINAL

E|----------------8--8--8--12--12--8--7--7--------|
B|--8--8------------------------------------10--8-|
G|---------10--9----------------------------------|
D|------------------------------------------------|
A|------------------------------------------------|
E|------------------------------------------------|


E|--7--7--7--10--10--7--8--8--7------8--8--8--8--7---------------7-|
B|-------------------------------10-----------------10--8--8--8----|
G|-----------------------------------------------------------------|
D|-----------------------------------------------------------------|
A|-----------------------------------------------------------------|
E|-----------------------------------------------------------------|
Otros videos de esta canción
    599 exhibiciones
      • ½ Tono
      • Am
      • Bbm
      • Bm
      • Cm
      • C#m
      • Dm
      • Ebm
      • Em
      • Fm
      • F#m
      • Gm
      • G#m
    • Agregar a la lista

    Afinação da cifra

    Afinador online

      Ops (: Contenido disponible solo en portugués.
      OK