Cifra Club

Aprenda

Bailando Solo

Los Bunkers

Tablatura: Principal (guitarra)
Tom: C
Intro: Dm  F (x4)

Dm                                             F
Ahora que estás aquí ahogado en medio de la gente
Dm                                             F
Y estás dispuesto a más de lo que puedes soportar
Dm                                       F
Los altavoces van amplificando las verdades
Dm                                       F
Ahora que estás aquí en medio de la soledad

(Coro)
Dm                         F
Bailando solo en la oscuridad
            Am
Te vas a acostumbrar
G
Al ver toda la vida pasar
Dm                              F
Igual que una promesa al anochecer
           Am
Te puedes disolver
G
Al borde de un vaso de cristal

Dm                                               F
Ahora que estás aquí y que el futuro se te esconde
Dm                                               F
Ya has rasguñado el suelo y las paredes de tu habitación
Dm                                               F
No quieres ver el sol, no quieres nada por las tardes
Em                                       G
Ninguna sensación que nos haga sentir mejor

(Coro)
Dm                         F
Bailando solo en la oscuridad
            Am
Te vas a acostumbrar
G
A ver toda la vida pasar

Dm                              F
Igual que una promesa al anochecer
             Am
Te puedes disolver
G
Al borde de un vaso de cristal

Solo:

Guitarra 1

  FA  SOL LAm  FA  SOL LAm  FA  SOL LAm   REm
E|-----------------------------------------------|
B|-----------------------------------------------|
G|----------------------------------------7~-----|
D|-3~--5~--7~---3~--5~--7~---3~--5~--7~---7~-----|
A|-3~--5~--7~---3~--5~--7~---3~--5~--7~---5~-----|
E|-1~--3~--5~---1~--3~--5~---1~--3~--5~----------|

Guitarra 2

  FA     SOL       LAm
E|------------------------------|
B|-----1-0----------1~----------|
G|---2-------2---0--2~----------| X3
D|-3-------3---0----2~----------|
A|------------------0~----------|
E|------------------------------|

Break:

Guitarra 1

E|------------------|
B|------------------|
G|------10-10-10-10-| X16
D|-7/12-------------|
A|------------------|
E|------------------|

Guitarra 2

E|------------------|
B|------------------|
G|------------------|
D|------12-12-12-12-| X16
A|-8/12-------------|
E|------------------|

Dm                 F
Lalalaralalalalarala (x4)
Compositor Cami Ossandón
Colaboración y revision:
  • Camila Mejias
8.891 reproducciones
    • ½ Tom
    • A
    • Bb
    • B
    • C
    • Db
    • D
    • Eb
    • E
    • F
    • F#
    • G
    • Ab
  • Adicionar à lista

    0 comentarios

    Mostrar mais comentários

    ¿Conseguiste tocar?

    5 Tocaron 0 Ainda não

    Grave um vídeo tocando Bailando Solo e mande pra gente!

    00:00 / 00:00
    outros vídeos desta música
    repetir qualidade Automático
    Outros vídeos desta música
    00:00 / 00:00
    Automático
    OK