Cifra Club

Casi que me pierdo

Los Cafres

Cifrado: Principal (guitarra y guitarra eléctrica)
tono: Cm
Intro TROMPETAS :    Cm - G# - Bb - Gm - G# - Fm - G
E-||----------6/8/6------------------10-8-6--------------------------|
B-||---6-8----------8---6/8/6---------------8-6----9-8-6------6-8-6--|
G-||-8-----8----------8-------5-7---------------8--------8-7-8-------|
D-||-----------------------------------------------------------------|
A-||-----------------------------------------------------------------|
E-||-----------------------------------------------------------------|


            Cm                    Ab        Bb       Gm
Casi que me voy hasta el fin del mundo a buscarte
              Ab      Fm          G
casi que me cuelgo, y no puedo volver

             Cm    Ab             Bb        Gm
casi que me pierdo,   tus ojitos de antes
              Ab   Fm          G
siempre expectantes,  siempre soña

Me gusta cantar hoy por nuestro encuentro
prefiero entregarle al mundo lo cierto
casi que me muero, sin conocerte
casi que me quedo sin bailar

Suerte que te vi, e/--11/8-8-11-15-13-
B|--11/8------------|

Cantando       e/----------------------
B|-10-11-13-10-8-9---8--|


correteando por ahí
que suerte igual te vi, bailando , me di cuenta de tanto.

Intro. X2

Casi que la noche me sorprende
pero que tarde uno aprende
la suerte es amiga de la acción

Suerte que te vi, cantando , me di cuenta de tanto
que suerte igual te vi, bailando  , me cayo la ficha de quien sos

              Fm                 G        e/----------------
Claro que salpica  este charco en vano    B/-8-6-8-9-6------
G/|-----------7/10-|
                  Fm             G
y ya no esta tan limpia  mi condición
              Cm Ab    Bb   Gm  Ab     Fm       G
Pero se que te vi,  bailando  ,  correteando por ahí
                    Cm  Ab    Bb   Gm  Ab    Fm                   G
que suerte igual te vi,   cantando     me cayó la ficha de quien sos

Que suerte que te vi...
Yo tantas ganas de amarte
que suerte igual te vi
me cayo la ficha de quien sos...
La suerte es amiga de la acción.

G  O

E|-----------------------------------------------------------------------------|
B|-----------------------------------------------------------------------------|
G|-----------------------------------------------------------------------------|
D|------3/5-3-------------------------------------3/5-3------------------------|
A|3-5-6------6-5--5/8-6-5-3--3/6-5----------3-5-6-------6-5-5-6-6/5-5-5-5-3----
E|---------------------------------3-3--3-5---------------------------------4-3|

                 Cm -   Ab   - Bb   - Gm   - Ab   - Fm    - G          Cm
E|----------------------------------------------------------------------------|
B|----------------------------------------------------------------------------|
G|--------------------------------------------------6/5-3---------------------|
D|--------------------------------------8/9-8-6-6-5-------5-4-3---------------|
A|------3-5-6-5-3-3-5-5/6-6-6-6-5-6-6/8-------------------------4-6-6-4-6-4--|
E|---5-6---------------------------------------------------------------------|

…..Ab - Bb - Gm - Ab - Fm - G            Bb - Gm - Ab - Fm - G
E|------------------------------7-8p7----------------------------------------|
B|-8------------------------8p7------8p7-------7-11-10-9-10-9--7h8p7--7/8----|
G|-8-7-5-----------5-7-8-7--------------8p7----7--------------8-----8--------|
D|-------8-5/6-6-5-------------------------10--------------------------------|
A|---------------------------------------------------------------------------|
E|---------------------------------------------------------------------------/|

              Cm - Ab - Bb - Gm - Ab - Fm - G
E|-----------7-7/8--11/10-10-10/8-8-8/6-6----------------------------------|
B|-------7-8-------------------------------8p7-----------------------------|
G|-8-7-8---------------------------------------8p7-------------------------|
D|-------------------------------------------------10-9--------------------|
A|------------------------------------------------------11-10--------------|
E|------------------------------------------------------------11-10-8------|
00:00 / 00:00
Otros videos de esta canción
Repetir
Otros videos de esta canción
Composición de Demian Marcelino / Guillermo Bonetto
595 vistas
    • ½ Tono
    • Am
    • Bbm
    • Bm
    • Cm
    • C#m
    • Dm
    • Ebm
    • Em
    • Fm
    • F#m
    • Gm
    • G#m
  • Agregar a la lista

    0 comentarios

    Ver todos los comentarios

    ¿Lograste tocar?

    1 Tocaron 0 Aún no

    ¡Graba un video tocando Casi que me pierdo y envíanoslo!

    00:00 / 00:00
    OK