Cifra Club

A orillas del río dulce

Los Carabajal

Cifrado: Principal (guitarra y guitarra eléctrica)
tono: Em
B|---10~-7-7/8-8-10p8--7-5-5/7-7-4-4/5-5-|
G|---------------------------------------|
D|-10----7-7/9-9------7--5-5/7-7-4-4/5-5-|
A|---------------------------------------|
E|---------------------------------------|

B|--5--5-5/10-10-7-7/8-8-10p8--7-5-5/7-7-4-4/5-5~|
G|-----------------------------------------------|
D|-------5/10-10-7-7/9-9------7--5-5/7-7-4-4/5-5~|
A|-0---------------------------------------------|
E|----0------------------------------------------|

                                 Intro:

                       Primera Guitarra:(Punteo)

B|---10--7-8---12-7-8-|
G|--------------------| (X3)
D|-10---7--9-12---7-9-|

                       Segunda Guitarra:(Ritmo)

                             B7 Em (x3)

 C                G                       C                 G
A orillas del río dulce                   No me olvido de la isla
     C            G                            C            G
me robaste el corazón.                    la otrabanda del canal
   D7         G                             D7         G
Corazón de picaflor                       aromada de chañar en
            B7           Em                   B7          Em
que en su trampita solo cayo.             una tarde primaveral
00:00 / 00:00
Otros videos de esta canción
Repetir
Otros videos de esta canción
Compositor no encontrado.
1 vistas
    • ½ Tono
    • Am
    • Bbm
    • Bm
    • Cm
    • C#m
    • Dm
    • Ebm
    • Em
    • Fm
    • F#m
    • Gm
    • G#m
  • Agregar a la lista

    0 comentarios

    Ver todos los comentarios

    ¿Lograste tocar?

    0 Tocaron 0 Aún no

    ¡Graba un video tocando A orillas del río dulce y envíanoslo!

    00:00 / 00:00
    OK