Cifra Club

Añoranzas

Los Carabajal

Cifrado: Principal (guitarra y guitarra eléctrica)
tono: Am
E|--------------0---0--------------0---0---------------/|
B|--0-1-3-0-3-1---1----0-1-3-0-3-1---1----0-1-3-0-3-1--/|
G|-----------------------------------------------------/|
D|-----------------------------------------------------/|
A|-----------------------------------------------------/|
E|-----------------------------------------------------/|


Segunda Guitara:

E|-----------------------------------------------------/|
B|------0---0---1---1------0---0---1---1------0---0----/|
G|--1-2---1---2---2----1-2---1---2---2----1-2---1---2--/|
D|-----------------------------------------------------/|
A|-----------------------------------------------------/|
E|-----------------------------------------------------/|
00:00 / 00:00
Otros videos de esta canción
Repetir
Otros videos de esta canción
Composición de Julio A. Jerez
4 vistas
    • ½ Tono
    • Am
    • Bbm
    • Bm
    • Cm
    • C#m
    • Dm
    • Ebm
    • Em
    • Fm
    • F#m
    • Gm
    • G#m
  • Agregar a la lista

    0 comentarios

    Ver todos los comentarios

    ¿Lograste tocar?

    0 Tocaron 0 Aún no

    ¡Graba un video tocando Añoranzas y envíanoslo!

    00:00 / 00:00
    OK