Cifra Club

Chacarera del cardenal

Los Carabajal

Cifrado: Principal (guitarra y guitarra eléctrica)
tono: Bm
E|----10-------------------------------------10-|
B|-7------7s10s8--7s10s8--7s10s8--7s10s8--7-----|
G|----------------------------------------------|
D|----------------------------------------------|
A|----------------------------------------------|
E|----------------------------------------------|
(Realizar el mismo procedimiento 4 veces más)

(Intro)
E|----7--9--10--12--12--12--14--12--|
B|--8----10-11--13--13--13--15--13--|
G|----------------------------------|
D|----------------------------------|
A|----------------------------------|
E|----------------------------------|

E|-10--10--10--12--10--9--9--9--10--9--7-|
B|-11--11--11--13--11--10-10-10-11--10-8-|
G|---------------------------------------|
D|---------------------------------------|
A|---------------------------------------|
E|---------------------------------------|
(repetir intro)

Bm            G
En un monte vecino
 Em        F#
cantó un cardenal
D
y un mediodía de flechas
 A7        D
lo quiso callar,
 Em           Bm
pero tu sol quería
  F#         Bm
volverlo a escuchar.

En un lugar del tiempo
la vida se unió,
junto con la inocencia
en que nace el amor,
los cuerpos no son carne
que regala Dios.

Tierra, bendita tierra
de palos y mar,
esta guerra es eterna,
es furia que va,
que baila por las naciones
donde hay libertad.

Estribillo :
En un monte vecino
cantó un cardenal
y un mediodía de flechas
lo quiso callar,
pero tu sol quería
volverlo a escuchar.

En las calles florece
una juventud
que busca su futuro
donde está tu amor,
E  Db elión te canta
lo que me faltó.

Un beso es solo un beso
y una condición
relámpago que en la noche
a mi niño asustó,
por irme de la guía
quiero tu perdón.

Línea de bailarines
de brazos al sol
se mueven como las ramas
flexibles al viento
pisan descalzo al este
con luz de oración.

Estribillo :
En las calles florece
una juventud
que busca su futuro
donde esta tu amor,
E  Db elión te canta
lo que me faltó.
00:00 / 00:00
Otros videos de esta canción
Repetir
Otros videos de esta canción
Composición de Jacinto Piedra
1 vistas
    • ½ Tono
    • Am
    • Bbm
    • Bm
    • Cm
    • C#m
    • Dm
    • Ebm
    • Em
    • Fm
    • F#m
    • Gm
    • G#m
  • Agregar a la lista

    0 comentarios

    Ver todos los comentarios

    ¿Lograste tocar?

    0 Tocaron 0 Aún no

    ¡Graba un video tocando Chacarera del cardenal y envíanoslo!

    00:00 / 00:00
    OK