Cifra Club

Dejame Que Me Vaya

Los Carabajal

Cifrado: Principal (guitarra y guitarra eléctrica)
tono: A
[Intro]

   A                                      D 
E|------8---8-8-7-5--------8---8-8-7-5----------10----10-10-8-7----------|
B|-----------------------------------------------------------------------|
G|-7--9---9-----7-5---7--9---9-----7-5----9--10----10-------8-7----------|
D|-----------------------------------------------------------------------|
A|-----------------------------------------------------------------------|
E|-----------------------------------------------------------------------|
   A     E7     A 
E|-4-5-7-10-8-7-5--------------------------------------------------------|
B|-----------------------------------------------------------------------|
G|-4-5-7-10-9-7-5--------------------------------------------------------|
D|-----------------------------------------------------------------------|
A|-----------------------------------------------------------------------|
E|-----------------------------------------------------------------------|

Am 
    Aunque me duela el alma
Dm 
    Y se me quiebre el pecho
    Dejame que me vaya
Am 
    A olvidarme tus besos
F 
    Dejame que me vaya
Dm            E7        Am 
    A olvidarme tus besos

    A donde iré no importa
    No intentes detenerme
    Total sabes de sobra
    Que en vano fue quererte
    Total sabes de sobra
    Que en vano fue quererte

    No creo en tus promesas
    No me hagas juramentos
    Ni bien tu voz la suelta
    Ya se la lleva el viento
    Ni bien tu voz la suelta
    Ya se la lleva el viento
    Siempre en el corazón
    Guardo una chacarera
    Dejame que me vaya
    Y que con ella muera
    Dejame que me vaya
    Y que con ella muera

    Aunque me duela el alma
    Tan solo pienso en irme
    No quiero estar mañana
    Crucificado y triste
    No quiero estar mañana
    Crucificado y triste

    Del hueco de tus manos
    Blancas como el azucar
    Bebí los desengaños
    Probé las amarguras
    Bebí los desengaños
    Probé las amarguras

    La miel que vos me diste
    No estaba hecha de flores
    De algún rencor hiciste
    La miel de tus amores
    De algún rencor hiciste
    La miel de tus amores
    Siempre en el corazón
00:00 / 00:00
Otros videos de esta canción
Repetir
Otros videos de esta canción
Compositor no encontrado.
Colaboración y revisión:
  • Neme sis
6 vistas
    • ½ Tono
    • A
    • Bb
    • B
    • C
    • Db
    • D
    • Eb
    • E
    • F
    • F#
    • G
    • Ab
  • Agregar a la lista

    0 comentarios

    Ver todos los comentarios

    ¿Lograste tocar?

    0 Tocaron 0 Aún no

    ¡Graba un video tocando Dejame Que Me Vaya y envíanoslo!

    00:00 / 00:00
    OK