Cifra Club

La Humilde

Los Carabajal

Cifrado: Principal (guitarra y guitarra eléctrica)
tono: F
E|------------------------------------------------|
B|----5--5--5-4--4--4-3---3---3-1---1--3-5--------|
G|----5--5--5-5--5--5-4---4---4-2---2--4-5--------| (3 veces)
D|------------------------------------------------|
A|-0-0--0--0----0--0-----0---0-----0--0-----------|
E|------------------------------------------------|

Melodía:

E|------------------------------------------------|
B|----1-0--1--3--5----3-2--3---0--1---------------|
G|----2-0--2--4--5----4-3--4---1--2---------------|
D|------------------------------------------------|
A|-0-0----0--0-----0-0----------------------------|
E|------------------------0---0-------------------|

E|-----------------------------------|------------|
B|----1-0--1--3--5----3-2--3---0--1--|--3-5-------|
G|----2-0--2--4--5----4-3--4---1--2--|--4-5-------|
D|-----------------------------------|------------|
A|-0-0----0--0-----0-0---------------|------------|
E|------------------------0---0------|------------|

E|---------------3/5-5-5---3----------------------|
B|--6-6--6-5--6--5/6-6-6---5---5-5-5-*6-----------|
G|--7-7--7-6--7-----------------------------------|
D|-0----0-----0--0--------------------------------|
A|------------------------0-----------------------|
E|------------------------------------------------|

E|------------------------------------------------|
B|--6-6-6--5--3-3--1-0--5-5--3-1------------------|
G|--7-7-7--5--4-4--2-0--5-5--4-2------------------|
D|------------------------------------------------|
A|-0-------------------0----0---------------------|
E|--------0-------0-------------------------------|

Melodia

E|------------------------------------------------|
B|----1-0--1--3--5----3-2--3---0--1---------------|
G|----2-0--2--4--5----4-3--4---1--2---------------|
D|------------------------------------------------|
A|-0-0----0--0-----0-0----------------------------|
E|------------------------0---0-------------------|

E|-----------------------------------|------------|
B|----1-0--1--3--5----3-2--3---0--1--|--3-5-------|
G|----2-0--2--4--5----4-3--4---1--2--|--4-5-------|
D|-----------------------------------|------------|
A|-0-0----0--0-----0-0---------------|------------|
E|------------------------0---0------|------------|

E|---------------3/5-5-5---3----------------------|
B|--6-6--6-5--6--5/6-6-6---5---5-5-5-*6-----------|
G|--7-7--7-6--7-----------------------------------|
D|-0----0-----0--0--------------------------------|
A|------------------------0-----------------------|
E|------------------------------------------------|

E|------------------------------------------------|
B|--6-6-6--5--3-3--1-0--5-5--3-1------------------|
G|--7-7-7--5--4-4--2-0--5-5--4-2------------------|
D|------------------------------------------------|
A|-0-------------------0----0---------------------|
E|--------0-------0-------------------------------|

E|-4-4-5-4-5-7-8-8---7-6-7-4/5-5-4-5--------------|
B|------------------------------------------------|
G|-4-4-5-4-5-7-9-9---7-6-7-4/5-5-4-5--------------|
D|------------------------------------------------|
A|------------------------------------------------|
E|------------------------------------------------|

E|-5-4-5-7-8-8---7-6-7-4-5-7-8--------------------|
B|------------------------------------------------|
G|-5-4-5-7-9-9---7-6-7-4-5-7-9--------------------|
D|------------------------------------------------|
A|------------------------------------------------|
E|------------------------------------------------|

E|-10-9-10-9-10-9-10-12/13-13-13-12-12--8---------|
B|------------------------------------------------|
G|-10-9-10-9-10-9-10-12/14-14-14-12-12--9---------|
D|------------------------------------------------|
A|------------------------------------------------|
E|------------------------------------------------|

E|-10-10-10-8-8-7-7-5-4-8-8-7-5-|-7-8-------------|
B|------------------------------|-----------------|
G|-10-10-10-9-9-7-7-5-4-9-9-7-5-|-7-9-------------|
D|------------------------------|-----------------|
A|------------------------------|-----------------|
E|------------------------------|-----------------|

E|-10-9-10-9-10-9-10-12/13-13-13-12-12--8---------|
B|------------------------------------------------|
G|-10-9-10-9-10-9-10-12/14-14-14-12-12--9---------|
D|------------------------------------------------|
A|------------------------------------------------|
E|------------------------------------------------|

E|-10-10-10-8-8-7-7-5-4-8-8-7-5-------------------|
B|------------------------------------------------|
G|-10-10-10-9-9-7-7-5-4-9-9-7-5-------------------|
D|------------------------------------------------|
A|------------------------------------------------|
E|------------------------------------------------|
00:00 / 00:00
Otros videos de esta canción
Repetir
Otros videos de esta canción
Compositor no encontrado.
    • ½ Tono
    • A
    • Bb
    • B
    • C
    • Db
    • D
    • Eb
    • E
    • F
    • F#
    • G
    • Ab
  • Agregar a la lista

    0 comentarios

    Ver todos los comentarios

    ¿Lograste tocar?

    0 Tocaron 0 Aún no

    ¡Graba un video tocando La Humilde y envíanoslo!

    00:00 / 00:00
    OK