Cifra Club

Tiene sentido la vida

Los Carabajal

Cifrado: Principal (guitarra y guitarra eléctrica)
tono: Dm

E|-12--12-10--10-8-8-7-5-|
B|-----------------------| (x2)
G|---12-----10---9-9-7-5-|

Intro:

1era Guitarra (punteo):

E|--8-8-8-8-s-10-10---10-10-s-7-7-7-7-s-8-8-8-|
B|--------------------------------------------| (x2)
G|-9---9--9-s-10-10-10---10-s-7-7--7-s-9--9--|

2da Guitarra (ritmo):

Dm  - E7  - Am  - A7  - Dm  - E7  - Am 

Am                       C 
Tiene sentido la vida la pucha si lo tendra
    Gm              A7                   Dm 
preguntate para adentro seguro lo encontraras
                C           E7         Am 
tiene sentido la vida el silencio te dirá

B|--1-1-1--1-s-3-3-3-3-0-0-0-1-1-1-|
G|--------------------------------| (x2)
D|-2---2-2-2-s-3--3--3-0--0-2---2--|

Am  - Dm  - E7  - Am  (x2)

En lo profundo en lo alto en la flor en el adios
en la sonrisa del niño en el beso y el dolor
tiene sentido la vida cuando esta llena de amor

E|--8-8-8-8-s-10-10---10-10-s-7-7-7-7-s-8-8-8-|
B|--------------------------------------------| (x2)
G|-9---9--9-s-10-10-10---10-s-7-7--7-s-9--9--|

Am  - Dm  - E7  - Am  (x2)

Hablemosnos frente a frente sin esquivar las miradas
sin engaños ni mentiras confiemos en la palabra
tiene sentido la vida si no se anda en cosas raras

A7                 Dm             B7         E7 
No cuesta nada empezar no cuesta nada intentarlo
       Gm             A7                       Dm 
los valores ya estan dados empezemos a encausarlos
               C           E7           Am 
tiene valores la vida empezemos a juntarlos



E|--8-8-8-8-s-10-10---10-10-s-7-7-7-7-s-8-8-8-|
B|--------------------------------------------| (x2)
G|-9---9--9-s-10-10-10---10-s-7-7--7-s-9--9--|

Dm  - E7  - Am  - A7  - Dm  - E7  - Am 

Mi padre solia decirme que pa´ tos no es la suerte
que el que a hierro mata un dia
a hierro tambien se muere
tiene sentido la vida si llega tarde la muerte

B|--1-1-1--1-s-3-3-3-3-0-0-0-1-1-1-|
G|--------------------------------| (x2)
D|-2---2-2-2-s-3--3--3-0--0-2---2--|

Am  - Dm  - E7  - Am  (x2)

Caminos de ausencias largas callejones sin salida
diariamente asi transita de un lado al otro la mentira
tiene sentido la vida si encontramos la salida

E|--8-8-8-8-s-10-10---10-10-s-7-7-7-7-s-8-8-8-|
B|--------------------------------------------| (x2)
G|-9---9--9-s-10-10-10---10-s-7-7--7-s-9--9--|

Am  - Dm  - E7  - Am  (x2)

Si educamos nuestros hijos y limpiamos nuestra casa
si ayudamos al vecino veras que existe una causa
tiene sentido la vida probarlo no cuesta nada

A7                 Dm             B7         E7 
No cuesta nada empezar no cuesta nada intentarlo
       Gm             A7                       Dm 
los valores ya estan dados empezemos a encausarlos
               C           E7           Am 
tiene valores la vida empezemos a juntarlos
00:00 / 00:00
Otros videos de esta canción
Repetir
Otros videos de esta canción
Composición de Mario Alvarez Quiroga
    • ½ Tono
    • Am
    • Bbm
    • Bm
    • Cm
    • C#m
    • Dm
    • Ebm
    • Em
    • Fm
    • F#m
    • Gm
    • G#m
  • Agregar a la lista

    0 comentarios

    Ver todos los comentarios

    ¿Lograste tocar?

    0 Tocaron 0 Aún no

    ¡Graba un video tocando Tiene sentido la vida y envíanoslo!

    00:00 / 00:00
    OK