Cifra Club

El vaquilla

Los Chichos

Cifrado: Principal (guitarra y guitarra eléctrica)
Selo Cifra Club: esta cifra foi revisada para atender aos critérios oficiais da nossa Equipe de Qualidade.
tono: Am
*
A|--3h2h0----3h2h0---|


INTRO: (2 veces cada acorde)

E|------| E------- |------lam-------|-------G-------  |------------F----------- |E

E|----------------0----------0---------------------0-3--1-0-1--0---0-------------|
B|------------0-1------3-1-3---3-1-0---------0-1-3---------------3-----3-1-0-----|
G|--------1-2----------------------------0-2---------------------------------2---|
D|----2-3----------------------------------------------------------------------2-|
A|-------------------------------------------------------------------------------|
0------------------------------------------------------------------------------

E|-----| E------- |------lam------|------G-------  |--------------F------------M I

E|---------------0---------0--------------------0-3--1-0-1--0---0----------------|
B|-----------0-1-----3-1-3---3-1-0--------0-1-3---------------3-----3-1h0--------|
G|-------1-2--------------------------0-2---------------------------------2h0----|
D|---2-3----------------------------------------------------------------------3-2|
A|-------------------------------------------------------------------------------|
0------------------------------------------------------------------------------



       Am       *
VOZ 1: El nació, por amor un día libre
                       G  
        Libre como el viento, libre
                   F 
       Como las estrellas, libre
                     E 
       Como el pensamiento.

       Am       *
VOZ 2: profesión, roba lo que puede, roba
                     G  
       Porque le enseñaron, era
                  F 
       Era muy pequeño, solo
                    E 
       solo vio lo malo.

                      E                  F 
ESTRIB: Tú eres el vaquilla, alegre bandolero
                     G     G7             C 
        Porque lo que ganas repartes el dinero
                     Am     A7              Dm 
        Tu eres el vaquilla de buenos sentimientos
                      F      (G           F )   E 
        Si al final dependes de un simple carcelero.

                      E                  F 
        Tú eres el vaquilla, alegre bandolero
                     G     G7             C 
        Porque lo que ganas repartes el dinero
                     Am     A7              Dm 
        Para que te juegas la vida no lo entiendo
                      F      (G           F )   E 
        Si al final dependes de un simple carcelero.



E|------------| INTRO------------------------------------


       Am      *
VOZ 3: Es feliz, aunque vive errante, vive
                   G  
       Como un fugitivo siempre
                     F 
       Siempre va narrando, siempre
                     E 
       Siempre perseguido.

       Am      *
VOZ 4: Desertor, de todas las leyes, nunca
                   G  
       Nunca le gustaron, lucha
                  F 
       Con la policía, ellos
                      E 
       Ellos son contrarios.

ESTRIB: Tú eres el vaquilla, alegre bandolero
                     G     G7             C 
        Porque lo que ganas repartes el dinero
                     Am     A7              Dm 
        Tu eres el vaquilla de buenos sentimientos
                      F      (G           F )   E 
        Si al final dependes de un simple carcelero.

                      E                  F 
        Tú eres el vaquilla, alegre bandolero
                     G     G7             C 
        Porque lo que ganas repartes el dinero
                     Am     A7              Dm 
        Para que te juegas la vida no lo entiendo
                      F      (G           F )   E 
        Si al final dependes de un simple carcelero.
Otros videos de esta canción
184 exhibiciones
    • ½ Tono
    • Am
    • Bbm
    • Bm
    • Cm
    • C#m
    • Dm
    • Ebm
    • Em
    • Fm
    • F#m
    • Gm
    • G#m
  • Agregar a la lista

Afinación de cifrado

Afinador online

    OK