Cifra Club

Gema

Los Dandys

Tablatura: Principal (guitarra)
tono: F (con acordes en la forma de E) Capotraste na 1ª casa
[Intro] Em  D  C  B7  Em

E|------------------------------------------|
B|---5--5-7-8-10-12-10-8-7-5-3--------------|
G|------------------------------------------|
D|-5----5-7-9-10-12-10-9-7-5-4--4-4-4-4-4---|
A|------------------------------------------|
E|------------------------------------------|

E|------------------------------------------|
B|-3-5-7-8-10-8-7-5-3-1----1---1---1---1--1-|
G|------------------------------------------|
D|-4-5-7-9-10-9-7-5-4-2--2---2---2---2---2--|
A|------------------------------------------|
E|------------------------------------------|

E|------------------------------------------|
B|-1-3-5-7-8-7-5-3-1-0----------------------|
G|------------------------------------------|
D|-2-4-5-7-9-7-5-4-2-1----------------------|
A|------------------------------------------|
E|------------------------------------------|

E|-8-7-5-3--7-5-3-2--5-3-2-0----------------|
B|------------------------------------------|
G|------------------------------------------|
D|------------------------------------------|
A|------------------------------------------|
E|-8-7-5-3--7-5-3-2--5-3-2-0----------------|

[Primeira Parte]

 Em                 D 
Tu como piedra preciosa 
             C 
Cómo divina joya 
               B7 
Valiosa de verdad 
C                     B7 
  Si mis ojos no me mienten 
C              B7 
  Si mis ojos no me engañan 
Am7                  B7 
   Tu belleza es sin igual

[Segunda Parte]

 E        B7         E 
Tuve una vez la ilusión 
      B7      E 
De tener un amor 
                  B7 
Que me hiciera valer 
  A        B7      A
Luego que te vi mujer 
       B7    A
Yo te pude querer  
       B7       E 
Con toditita mi alma 

[Refrão]
 
         B7        E 
Eres la gema que Dios 
       B7         E 
Convirtiera en mujer  
       E7        A 
Para bien de mi vida 
                  E 
Por eso quise cantar 
                   B7      
Y gritar que te quiero 
             E  E7 
Mujer consentida 
A                   E 
  Por eso elevo mi voz 
                B7 
Bendiciendo tu nombre 
             E 
Y pidiento amor

( B7  E  B7  E )

                  B7 
Que me hiciera valer 

( A  B7  A  B7  A )

       B7       E 
Con toditita mi alma 

[Refrão]

         B7        E 
Eres la gema que Dios 
       B7         E 
Convirtiera en mujer  
       E7        A 
Para bien de mi vida 
                  E 
Por eso quise cantar 
                   B7      
Y gritar que te quiero 
             E  E7 
Mujer consentida 
A                   E 
  Por eso elevo mi voz 
                B7 
Bendiciendo tu nombre 
             E  B7  E  B7  E
Y pidiento amor
Composição de Güicho Cisneros
Colaboración y revision:
  • Thiago Almeida
2.851 reproducciones
    • ½ Tono
    • A
    • Bb
    • B
    • C
    • Db
    • D
    • Eb
    • E
    • F
    • F#
    • G
    • Ab
  • Adicionar à lista

    0 comentarios

    Ver todos os comentários

    ¿Conseguiste tocar?

    0 Tocaram 0 Ainda não

    Grave um vídeo tocando Gema e nos envie!

    00:00 / 00:00
    outros vídeos desta música
    repetir qualidade Automático
    Outros vídeos desta música
    00:00 / 00:00
    Automático
    OK