Cifra Club

Quinceñera

Los Dandys

Cifrado: Principal (guitarra y guitarra eléctrica)
tono: Em
G:2-2-2-4-4-2-2-----------------------------4-2-2-2----
B:2-2-2-3-3-2-2-7-7-5-5-3-3-9-9-7-7-5-5-2-0-3-2--2-2---
e:0-0-0---------5-5-4-4-2-2-7-7-5-5-4-4-3-2---------0-5

Requinto de enmedio

G:2-2-2-4-4-2-2--------------------------------------------------------
B:2-2-2-3-3-2-2-7-7-5-5-3-3-9-9-7-7-5-5-9-9-7-5-5-5-5-5-5-3-3-3-7-7-7-2
e:0-0-0---------5-5-4-4-2-2-7-7-5-5-4-4-7-7-5-4-4-4-4-4-4-2-2-2-5-5-5-0

G:|------------------4-2-2-2----|
B:2-2-3-2-7-2-2-3-2-3-2--2-2---
e:0-0-2-0-5-0-0-2-0---------0-5
00:00 / 00:00
Otros videos de esta canción
Repetir
Otros videos de esta canción
Compositor no encontrado.
2 vistas
    • ½ Tono
    • Am
    • Bbm
    • Bm
    • Cm
    • C#m
    • Dm
    • Ebm
    • Em
    • Fm
    • F#m
    • Gm
    • G#m
  • Agregar a la lista

    0 comentarios

    Ver todos los comentarios

    ¿Lograste tocar?

    0 Tocaron 0 Aún no

    ¡Graba un video tocando Quinceñera y envíanoslo!

    00:00 / 00:00
    OK