Cifra Club

El Gran Infierno

Los Estrambóticos

Cifrado: Principal (guitarra y guitarra eléctrica)
tono: F#
Intro (si has escuchado la rola sabrás como va)

E|----5----5-----7---7------9---9-------11----11--11--11--11/-9-----9/-|
B|--7-----7-7/-9----9-9/-11---11-11/-12-----12--12--12----12/-11--11/--|
G|---------------------------------------------------------------------|
D|---------------------------------------------------------------------|
A|---------------------------------------------------------------------|
E|---------------------------------------------------------------------|

E|--7--7/--6-----------------------|
B|-9--9/---7-----------------------|
G|---------------------------------|
D|---------------------------------|
A|---------------------------------|
E|---------------------------------|

Empieza con ritmo como de ranchera

                      F#
Me han encontrado muriendo

                  C#
Agarrado de tu recuerdo

                     B
A la orilla de este grán

           C#
Grán infierno

                         F#
Llevo tanto tiempo pensando

                     C#
Día a día en un lamento

                       B
Que me ahogo en lo obscuro

           C#
De este deseo

                    F#
Estoy llorando de risa

                 C#
Tirado porque quiero

                           B
Que el cielo esté en la esquina

              C#
Del grán infierno


F#  C#  B

        C#   <------ A partir de este C# empieza ritmo de ska
chiquitita


F#
Te conoci en la calle

C#
Esperando a nadie

B
Y hasta me falto el aire

C#
Cuando me miraste asi

F#
Son tus ojos de viento

C#
Me deslumbran si los veo

B
Aún no te conosco

C#
Pero siento que te quiero

F#
Sin darnos cuenta pasó

C#
Que juntamos las manos

B
Caminamos por la calle

C#
Como enamorados

F#
Entonces juramos

C#
Nunca separarnos

B
Y brindamos porque al fin

C#
Nos habíamos encontrado


F#                           C#
"...y de repente que suena un extraño ruido

                       B
que raro,yo amanecí aquí en una cantina

                   C#
y tú, tú te habías ido"


F#  C#  B  *B*C# <---(*) significa que se toca solo una vez y no ritmo


*B*C#  *B*C#  *B*C# *C#  *C#  *C#



F#           <---------- aquí volvemos a ritmo de ranchera
Llevo tanto tiempo pensando

C#
Que solo fuiste un sueño

B
Otro de mis inventos

C#
Cuando me pongo ebrio

F#
Me han encontrado muriendo

C#
Agarrado de tu recuerdo

B
A la orilla de este grán

C#
Grán infierno
Composición de Los Estrambóticos
    • ½ Tono
    • A
    • Bb
    • B
    • C
    • Db
    • D
    • Eb
    • E
    • F
    • F#
    • G
    • Ab
  • Agregar a la lista

    0 comentarios

    Ver todos los comentarios

    ¿Lograste tocar?

    0 Tocaron 0 Aún no

    ¡Graba un video tocando El Gran Infierno y envíanoslo!

    00:00 / 00:00
    Otros videos de esta canción
    Repetir Calidad Automático
    Otros videos de esta canción
    00:00 / 00:00
    Automático
    OK