Cifra Club

Estoy solo

Los Estrambóticos

Cifrado: Principal (guitarra y guitarra eléctrica)
tono: Am
INTRO
   Em                C
E|----------------------------------------------|
B|----------------------------------------------|
G|--7-7---------------3-3--6-6-6-6-6-6-6--------|
D|------3-3-3-3-3-3-3---------------------------|
   Em                C
E|----------------------------------------------|
B|----------------------------------------------|
G|--7-7---------------3-3--6-6-6-6-6-6-6--------|
D|------3-3-3-3-3-3-3---------------------------|
   Em                C
E|----------------------------------------------|
B|----------------------------------------------|
G|--7-7---------------3-3--6-6-6-6-6-6-6--------|
D|------3-3-3-3-3-3-3---------------------------|
   Em                    C5  D5  E5
E|----------------------------------------------|
B|----------------------------------------------|
G|--7-7---------------3-3--3---5---7--------------|
D|------3-3-3-3-3-3-3---------------------------|

            Em     Bm
  Donde estabas,
         Am        C            Em  Bm
En los tiempos En que te extranaba
        Am          C      Em    Bm
Pero ahora ya no extrano nada
        Am      C         Em    Bm
De tu cuerpo ni de tu mirada
          Am        C
Ahora me buscaras.
G       Bm                   Am       C
  Cuando quieras que yo este
G       Bm                 Am      C
  Yo quiza ya no este aqui
G       Bm               Am
  Y si piensas en volver
          C              G         Bm               Am     C
  Yo quiza ya no este aqui, no este aqui, no este aqui.
G        Bm             Am     C
   Te volviste mi obsecion
G             Bm        Am     C
  Y aunque perdi la razon
G           Bm                Am
  Pero el tiempo cambia y cura
              C        G          Bm          Am     C
  Y hasta te di mi perdon, mi perdon, mi perdon.

CORO:
G5       F#5          Em5     C5
   Estoy solo, estoy solo    (solo)
G5      F#5       Em5      C5
   Tan solo, tan solo
G5       F#5          Em5    C5
   Estoy solo, estoy solo    (solo)
G5      F#5        Em5    C5
   Tan solo, tan solo.


             Em     Bm
  Donde estabas,
         Am        C            Em  Bm
En los tiempos En que te extranaba
        Am          C      Em    Bm
Pero ahora ya no extrano nada
        Am      C         Em    Bm
De tu cuerpo ni de tu mirada
          Am        C
Ahora me buscaras.

G         Bm        Am    C
 Con el tiempo yo te vi
G      Bm           Am     C
 Que triste yo te vi
G      Bm            Am
 Y la sombra de la sombra
          C          G        Bm        Am     C
 De tu exvida yo te di, yo te di, yo te di.
G           Bm         Am    C
 Y aunque no te buscare
G          Bm            Am    C
 Pienso y creo en mi razon
G          Bm              Am
 Y aunque no fue lo mejor
       C           G        Bm        Am     C
 Me robaste el corazon, corazon, corazon

CORO:
G5       F#5          Em5     C5
   Estoy solo, estoy solo    (solo)
G5      F#5       Em5      C5
   Tan solo, tan solo
G5       F#5          Em5    C5
   Estoy solo, estoy solo    (solo)
G5      F#5        Em5    C5
   Tan solo, tan solo.

G  O:

E|-----------------------------------------|
B|-----------------------------------------|
G|--/7-/b12--11-12-14-12-11-12-11-^14------|
D|-----------------------------------------|
A|-----------------------------------------|
E|-----------------------------------------|

E|---------------------------------------------------------|
B|---------------------------------------------------------|
G|--11-12-14-12-11-12-11----12-----------------------------|
D|-----------------------14-----14-12-10-12-14-------------|
A|---------------------------------------------/15-15-b14--|
E|---------------------------------------------------------|

E|---------------------------------------------------------|
B|---------13-12----15-12-------13-12----15-12-------13-12-|
G|--/12-12-------12-------12-12-------12-------12-12-------|
D|---------------------------------------------------------|
A|---------------------------------------------------------|
E|---------------------------------------------------------|

E|----------------------------------------|
B|--13/15-15-13-15-15/17-13-13-b12--------|
G|----------------------------------------|
D|----------------------------------------|
A|----------------------------------------|
E|----------------------------------------|

CORO:
G5       F#5          Em5     C5
   Estoy solo, estoy solo    (solo)
G5      F#5       Em5      C5
   Tan solo, tan solo
G5       F#5          Em5    C5
   Estoy solo, estoy solo    (solo)
G5      F#5        Em5    C5
   Tan solo, tan solo.

         Em     Bm
  Donde estabas,
         Am        C            Em  Bm
En los tiempos En que te extranaba
        Am          C      Em    Bm
Pero ahora ya no extrano nada
        Am      C         Em    Bm
De tu cuerpo ni de tu mirada
          Am        C
Ahora me buscaras.

         Em     Bm
  Donde estabas,
         Am        C            Em  Bm
En los tiempos En que te extranaba
        Am          C      Em    Bm
Pero ahora ya no extrano nada
        Am      C         Em    Bm
De tu cuerpo ni de tu mirada
          Am        C
Ahora me buscaras.

         Em     Bm
  Donde estabas,
         Am        C            Em  Bm
En los tiempos En que te extranaba
        Am          C      Em    Bm
Pero ahora ya no extrano nada
        Am      C         Em    Bm
De tu cuerpo ni de tu mirada
          Am        C
Ahora me buscaras.

         Em     Bm
  Donde estabas,
         Am        C            Em  Bm
En los tiempos En que te extranaba
        Am          C      Em    Bm
Pero ahora ya no extrano nada
        Am      C         Em    Bm
De tu cuerpo ni de tu mirada
          Am        C
Ahora me buscaras.

CORO:
G5       F#5          Em5     C5
   Estoy solo, estoy solo    (solo)
G5      F#5       Em5      C5
   Tan solo, tan solo
G5       F#5          Em5    C5
   Estoy solo, estoy solo    (solo)
G5      F#5        Em5    C5
   Tan solo, tan solo.

FINAL: un rasgueo de Em


!Y ESO ES TOC !

SALUC S A TODA A  BANDA DE ACAPULCO A JAVIER A EDGAR A AA N
A B NHUE Y A E  BROTHER EL MONKY

ACORDES:E---x---7---5---8----3---3---2---0---X------
E|---7---7---5---8----3---X---X---X---X------|
B|---8---7---5---8----3---X---X---X---X------|
G|---9---7---5---9----4---X---X---X---X------|
D|---9---9---7---10---5---X---X---2---5------|
A|---7---9---7---10---5---5---4---2---3------|
           Em   Bm  Am  C    G   G5  F5  Em5 C5
Composición de C. Aguirre / Leo Añorve
    • ½ Tono
    • Am
    • Bbm
    • Bm
    • Cm
    • C#m
    • Dm
    • Ebm
    • Em
    • Fm
    • F#m
    • Gm
    • G#m
  • Agregar a la lista

    0 comentarios

    Ver todos los comentarios

    ¿Lograste tocar?

    0 Tocaron 0 Aún no

    ¡Graba un video tocando Estoy solo y envíanoslo!

    00:00 / 00:00
    Otros videos de esta canción
    Repetir Calidad Automático
    Otros videos de esta canción
    00:00 / 00:00
    Automático
    OK