Cifra Club

Gracias

Los Estrambóticos

Cifrado: Principal (guitarra y guitarra eléctrica)
tono: A
E-||----------------------------------------|
B-||---------------7--------------10--7-----|
G-||------------7----9--6-7/9---------------|
D-||--9--9-9--------------------------------|
A-||----------------------------------------|
E-||----------------------------------------|

E-||----------------------------------------|
B-||--------------------7-------------------|
G-||----------------7----9-9-9--------------|
D-||--/9--9--9-9-----------------6-7-9--7---|
A-||----------------------------------------|
E-||----------------------------------------|

Bm E A F
         Bm         E
Yo nunca hubiera imaginado,
           A          F#
Estar realmente enamorado,
          Bm        E          A      F#
Yo no sabía lo que era estar feliz,
      Bm        E
Porque no tenía nada,
   A            F#
Y ahora lo tengo todo,
       Bm           E              A      F#
Es que tu amor llena todito mi corazón.

             Bm              E
Hoy estas aquí, yo vivo por ti,
     A           F#
Y lo quiero compartir,
         Bm             E
Muero por gritar, de felicidad,
   A                   F#
Celebro que hoy estés aquí,
         Bm                 E
y aunque estemos bien, nos gusta saber,
       A           F#
que juntos podemos crecer,
      Bm              E
y que al despertar, nos amamos mas,
   A              F#
y eso nunca va a acabar.

E-||----------------------------------------|
B-||---------------7--------------10--7-----|
G-||------------7----9--6-7/9---------------|
D-||--9--9-9--------------------------------|
A-||----------------------------------------|
E-||----------------------------------------|

E-||----------------------------------------|
B-||--------------------7-------------------|
G-||----------------7----9-9-9--------------|
D-||--/9--9--9-9-----------------6-7-9--7---|
A-||----------------------------------------|
E-||----------------------------------------|

       Bm           E
Y cuando estamos alejados,
         A                F#
Regreso a ver brillar tus ojos,
  Bm                       E            A        F#
si estás conmigo yo ¿qué más puedo pedir?
        Bm               E
Hoy solo quiero decirte gracias,
      A             F#
Por estar aquí a mi lado,
     Bm           E            A     F#
y por amarme como yo te amo a ti.



             Bm              E
Hoy estas aquí, yo vivo por ti,
     A           F#
Y lo quiero compartir,
         Bm             E
Muero por gritar, de felicidad,
   A                   F#
Celebro que hoy estés aquí,
         Bm                 E
y aunque estemos bien, nos gusta saber,
       A           F#
que juntos podemos crecer,
      Bm              E
y que al despertar, nos amamos mas,
   A              F#
y eso nunca va a acabar.

             Bm              E
Hoy estas aquí, yo vivo por ti,
     A           F#
Y lo quiero compartir,
         Bm             E
Muero por gritar, de felicidad,
   A                   F#
Celebro que hoy estés aquí,
         Bm                 E
y aunque estemos bien, nos gusta saber,
       A           F#
que juntos podemos crecer,
      Bm              E
y que al despertar, nos amamos mas,
   A              F#
y eso nunca va a acabar.
Composición de Los Estramboticos
2 vistas
    • ½ Tono
    • A
    • Bb
    • B
    • C
    • Db
    • D
    • Eb
    • E
    • F
    • F#
    • G
    • Ab
  • Agregar a la lista

    0 comentarios

    Ver todos los comentarios

    ¿Lograste tocar?

    0 Tocaron 0 Aún no

    ¡Graba un video tocando Gracias y envíanoslo!

    00:00 / 00:00
    Otros videos de esta canción
    Repetir Calidad Automático
    Otros videos de esta canción
    00:00 / 00:00
    Automático
    OK