Cifra Club

Imaginar

Los Estrambóticos

Cifrado: Principal (guitarra y guitarra eléctrica)
tono: Em
  Em    Dm    Cm    Bm

E|---7-----5-----3-----2---|
B|---8-----6-----4-----3---|
G|---9-----7-----5-----4---|
D|---9-----7-----5-----4---|
A|---7-----5-----3-----2---|
E|-------------------------|

Intro:

(Sin distorcion)
Em, Dm, Cm, Bm  X 2


Tuve un sueño tan real tu y yo podíamos volar y volábamos lejos

(CON DISTORCION)
E|E|---------------------------------------|-------------------------|
B|E|---------------------------------------|-------------------------|
G|-9-9--------------7-7----------5-5----------------5-5------4-4--|
D|-9-9--------------7-7----------5-5----------------5-5------4-4--|
A|-7-7--------------5-5----------3-3----------------3-3------2-2--|
E|E|---------------------------------------|-------------------------|

de esta ciudad

E|----------------|
B|----------------|
G|---------9-9----|
D|---------9-9----|
A|---------7-7----|

hasta llegar al mar nos hundimos en espiral,
E|E|---------------------------------------|-----|
B|-9-9-------------7-7--------------5-5-------|
G|-9-9-------------7-7--------------5-5-------|
D|-7-7-------------5-5--------------3-3-------|
A|E|---------------------------------------|-----|

soñé que estábamos juntos, estuvimos en paz.
E|E|---------------------------------------|----10/12-----|
B|E|---------------------------------------|----10/12-----|
G|----------5-5--------4-4------9-9--------------------|
D|----------5-5--------4-4------9-9--------------------|
A|----------3-3--------2-2------7-7--------------------|
E|E|---------------------------------------|--------------|

(EN ESTA PARTE A S NOTAS SE TOCAN CON PALM MUTE CON DISTORCION)

 Em                Dm
El mar se mide en olas,

    Cm
la vida se mide en días

                Bm
y nosotros nos medimos

   Em
en lágrimas....

  Em               Dm
me ahogaré en tus mejillas

            Cm
hasta que la luz del día

                  Bm
me regrese a esta pesadilla...


(EN ESTA PARTE A S NOTAS SE TOCAN CON RASGUEO NORMAL B N DISTORCION)


 Em           Dm
Un día soñé un cielo azul

    Cm           Bm
y en ese sueño estabas tú.

Em            Dm
no puede ser, no estás aquí,

Cm              Bm
no creo poderlo resistir.

Em        Dm
Imaginar a media luz

  Cm                Bm
que el tiempo pasa y estas tú

Em            Dm
no puede ser, tu ya no estás,

Cm               Bm
no  creo poderlo soportar.

Em, Dm, Cm, Bm  X 2


Volvía a soñar contigo a la orilla de un camino,

(CON DISTORCION)
E|E|---------------------------------------|---------|
B|E|---------------------------------------|---------|
G|-9-9-------------7-7----------5-5---------------|
D|-9-9-------------7-7----------5-5---------------|
A|-7-5-------------5-5----------3-3---------------|
E|E|---------------------------------------|---------|

erás tú con un rostro distinto
E|--------------------------------|
B|--------------------------------|
G|-5-5--------4-4----------9-9----|
D|-5-5--------4-4----------9-9----|
A|-3-3--------2-2----------7-7----|
E|--------------------------------|

en un laberinto junto a un hada de alas rotas y un dragón
E|E|---------------------------------------|------------------|
B|E|---------------------------------------|------------------|
G|-9-9-------------7-7-----------------5-5-----------------|
D|-9-9-------------7-7-----------------5-5-----------------|
A|-7-7-------------5-5-----------------3-3-----------------|
E|E|---------------------------------------|------------------|

 incendiando un castillo
E|-------------------------10/12--|
B|-------------------------10/12--|
G|-5-------4-4----9-9------------|
D|-5-------4-4----9-9------------|
A|-3-------2-2----7-7------------|
E|--------------------------------|

(EN ESTA PARTE DE NUEVO A S NOTAS SE TOCAN CON PALM MUTE CON
DISTORCION)

Em             Dm
Sentí un dolor profundo,

        Cm
todos mis miedos de niño,

                   Bm      Em
abrí los ojos y no estabas conmigo

Em               Dm
Siempre sueño lo mismo,

Cm
todo dura un segundo,

               Bm
un segundo es lo que vivimos



(EN ESTA PARTE A S NOTAS SE TOCAN CON RASGUEO NORMAL B N DISTORCION)


 Em           Dm
Un día soñé un cielo azul

    Cm           Bm
y en ese sueño estabas tú.

Em            Dm
no puede ser, no estás aquí,

Cm              Bm
no creo poderlo resistir.

Em        Dm
Imaginar a media luz

  Cm                Bm
que el tiempo pasa y estas tú

Em            Dm
no puede ser, tu ya no estás,

Cm               Bm
no  creo poderlo soportar.

(ESTA PARTE ES CON DISTORCION)

E|E|---------------------------------------|-----------------------|
B|E|---------------------------------------|-----------------------|
G|-9-9-9-9-9-9---7-7-7-7-7-7---6-6-6-6-6-6------5-5-5-5-5-5--4--| X2
D|-9-9-9-9-9-9---7-7-7-7-7-7---6-6-6-6-6-6------5-5-5-5-5-5--4--|
A|-7-7-7-7-7-7---5-5-5-5-5-5---4-4-4-4-4-4------3-3-3-3-3-3--2--|
E|E|---------------------------------------|-----------------------|


(ESTE G  O ES MUY FC IL PERO UN POCO RAPIC )

E|--7---7-7-7--5--3--0----7/12--12-12-12------------|
B|E|---------------------------------------|15--12-----|
G|E|---------------------------------------|-------13--|
D|E|---------------------------------------|-----------|
A|E|---------------------------------------|-----------|
E|E|---------------------------------------|-----------|

E|---------------------------------------|
12--15--13--12-----12--15--13--12------
---------------13-----------------13---
E|---------------------------------------|
E|---------------------------------------|
E|---------------------------------------|

E|---------------------------------------|-----------------------------
--12--15-13-12---15-13-12---15-13-12---15-13-12---15-13-12--13-15---
E|---------------------------------------|-----------------------------
E|---------------------------------------|-----------------------------
E|---------------------------------------|-----------------------------
E|---------------------------------------|-----------------------------

(EN ESTA PARTE A S NOTAS SE TOCAN CON RASGUEO NORMAL B N DISTORCION)


 Em           Dm
Un día soñé un cielo azul

    Cm           Bm
y en ese sueño estabas tú.

Em            Dm
no puede ser, no estás aquí,

Cm              Bm
no creo poderlo resistir.

Em        Dm
Imaginar a media luz

  Cm                Bm
que el tiempo pasa y estas tú

Em            Dm
no puede ser, tu ya no estás,

Cm               Bm
no  creo poderlo soportar.

(TERE NAS CON ESTA QUINTA CON DISTORCION)

E|-------------|
B|-------------|
G|-9-9-9-9-9---|
D|-9-9-9-9-9---|
A|-7-7-7-7-7---|
E|-------------|
Composición de Jorge rude boy
    • ½ Tono
    • Am
    • Bbm
    • Bm
    • Cm
    • C#m
    • Dm
    • Ebm
    • Em
    • Fm
    • F#m
    • Gm
    • G#m
  • Agregar a la lista

    0 comentarios

    Ver todos los comentarios

    ¿Lograste tocar?

    0 Tocaron 0 Aún no

    ¡Graba un video tocando Imaginar y envíanoslo!

    00:00 / 00:00
    Otros videos de esta canción
    Repetir Calidad Automático
    Otros videos de esta canción
    00:00 / 00:00
    Automático
    OK