Cifra Club

Mi parte viva

Los Estrambóticos

Cifrado: Principal (guitarra y guitarra eléctrica)
tono: Bm
    A 
E|----5------|
B|----5------|
G|----6------|
D|----7------|
A|----7------|
E|----5------|

Intro: Ritmo ska

A 

Dspues se toca esto:

E|--4-5-------------------|
B|------5-6---------------|
G|----------6-7-6-7-------|
D|------------------7-----|
A|------------------------|
E|------------------------|

A 
Llevo tan poco tiempo en este lugar
E|-------------|
B|---5-6-------|
G|-------6-7---|
D|-------------|
A|-------------|
E|-------------|

A 
las cosa no pesan parece que pueden flotar.
E|-----------------|
B|---0-0-1-0-------|
G|-----------2-----|
D|-----------------|
A|-----------------|
E|-----------------|

A 
Me monto en el viento y me dejo volar,


es bello el momento al tocar,
E|--3--5-4-3-2---|
B|---------------|
G|---------------|
D|---------------|
A|---------------|
E|---------------|


A 
sigo volando, me intentas bajar,

A 
el cuento de nunca acabar.


A 
Llevo tan poco tiempo en ese lugar
E|---------------|
B|--7/8----------|
G|-------7/88---|
D|---------------|
A|---------------|
E|---------------|

A 
mi rumbo no es fijo,


eso es lo que quieres cambiar
E|--------------------|
B|--3-2-3-2-3-2-3-2---|
G|--------------------|
D|--------------------|
A|--------------------|
E|--------------------|

A 
Me monto en el viento y me dejo llevar,

A 
me sueño viviendo al tocar,

A 
sigo volando , me intentas bajar.


E|--6/8-----|
B|----------|
G|----------|
D|----------|
A|----------|
E|----------|

¡Oye tu , que yo no estoy jugando ,
E|----------------------------------|
B|-8-8-8-7-6-7-8-7-6-7-8-6-7-8-6-7--|
G|----------------------------------|
D|----------------------------------|
A|----------------------------------|
E|----------------------------------|

E|-7-------7------7------7-------|
B|---7-6-7--7-6-7--7-6-7--7-6-7--|
G|-------------------------------|
D|-------------------------------|
A|-------------------------------|
E|-------------------------------|

la musica es mi forma de expresar,
E|----------------------------------|
B|-8-8-8-7-6-7-8-7-6-7-8-6-7-8-6-7--|
G|----------------------------------|
D|----------------------------------|
A|----------------------------------|
E|----------------------------------|

E|-7-------7------7------7-------|
B|---7-6-7--7-6-7--7-6-7--7-6-7--|
G|-------------------------------|
D|-------------------------------|
A|-------------------------------|
E|-------------------------------|

has perdido el tiempo en estar juzgando,
E|----------------------------------|
B|-8-8-8-7-6-7-8-7-6-7-8-6-7-8-6-7--|
G|----------------------------------|
D|----------------------------------|
A|----------------------------------|
E|----------------------------------|

E|-7-------7------7------7-------|
B|---7-6-7--7-6-7--7-6-7--7-6-7--|
G|-------------------------------|
D|-------------------------------|
A|-------------------------------|
E|-------------------------------|

            y yo no he parado de tocar¡
E|---------------------------------7-7-7-7-7-7-8-8-9-10--|
B|-8-8-8-7-6-7-8-7-6-7-8-6-7-8-6-7-----------------------|
G|-------------------------------------------------------|
D|-------------------------------------------------------|
A|-------------------------------------------------------|
E|-------------------------------------------------------|


(EN ESTA PARTE ACORTE LOS TIEMPOS PERO G  O ES CUESTION
DE IR RAPIC  Y ESCUCHAR A  CANCION AB  TE GUIARAS BIEN)

E|----------------------------------------------------|
B|--3-3-3-3-3-3-3-3--2-2-2-2-2-2-2-2--3-3-3-3-3-3-3---|
G|----------------------------------------------------|
D|----------------------------------------------------|
A|----------------------------------------------------|
E|----------------------------------------------------|

E|------------------------------------------------------|
B|-5-5-5-5-5-5-5-5--7-7-7-7-7-7-7-7--10-10-10-10-10-10--|
G|------------------------------------------------------|
D|------------------------------------------------------|
A|------------------------------------------------------|
E|------------------------------------------------------|

E|-------------------------------------------------------|
B|--9-9-9-9-9-9--7-7-7-7-7-7--8-8-8-8-8-8--7-7-7-7-7-7-7-|
G|-------------------------------------------------------|
D|-------------------------------------------------------|
A|-------------------------------------------------------|
E|-------------------------------------------------------|

E|----------------------------------------------------|
B|--3-3-3-3-3-3-3-3--7-7-7-7--5-5-5-5--3-3-3-3--------|
G|----------------------------------------------------|
D|----------------------------------------------------|
A|----------------------------------------------------|
E|----------------------------------------------------|

E|----------------------------------------------------|
B|--7-7-7-7-7-7-7-7--2-2-2-2-2-2--3-3-3-3-3-3---------|
G|----------------------------------------------------|
D|----------------------------------------------------|
A|----------------------------------------------------|
E|----------------------------------------------------|

E|----------------------------------------------------|
B|--5-5-5-5-5-5-5-5--3-3-3-3-3-3--5-5-5-5-5-7-7-7-7-7-|
G|----------------------------------------------------|
D|----------------------------------------------------|
A|----------------------------------------------------|
E|----------------------------------------------------|

E|-----------------------------------------------------|
B|--3-3-3-3-3-3--5-5-5-5-5-5--7-7-7-7-7-7--5-5-5-5-5-5-|
G|-----------------------------------------------------|
D|-----------------------------------------------------|
A|-----------------------------------------------------|
E|-----------------------------------------------------|

E|----------------------------------------------------|
B|--2-2-2-2-2-2-2-3-3-3-3-3-3-3-5-5-5-5-5-5-----------|
G|----------------------------------------------------|
D|----------------------------------------------------|
A|----------------------------------------------------|
E|----------------------------------------------------|

A 
Sigo y no entiendo , algo te quieres ocultar,

A 
me sigues mirando,

A 
pensando en que puedo cambiar.

A 
Mejor me levanto y vuelo hacia el mar,

A 
mi vuelo esta en el cantar,

A 
sigo volando, me intentas bajar.


¡Oye tu que yo no estoy jugando,
E|----------------------------------|
B|-8-8-8-7-6-7-8-7-6-7-8-6-7-8-6-7--|
G|----------------------------------|
D|----------------------------------|
A|----------------------------------|
E|----------------------------------|

E|-7-------7------7------7-------|
B|---7-6-7--7-6-7--7-6-7--7-6-7--|
G|-------------------------------|
D|-------------------------------|
A|-------------------------------|
E|-------------------------------|

la musica es mi forma de expresar,
E|----------------------------------|
B|-8-8-8-7-6-7-8-7-6-7-8-6-7-8-6-7--|
G|----------------------------------|
D|----------------------------------|
A|----------------------------------|
E|----------------------------------|

E|-7-------7------7------7-------|
B|---7-6-7--7-6-7--7-6-7--7-6-7--|
G|-------------------------------|
D|-------------------------------|
A|-------------------------------|
E|-------------------------------|

vivo en ella , y aunque a veces solo ando ,
E|----------------------------------|
B|-8-8-8-7-6-7-8-7-6-7-8-6-7-8-6-7--|
G|----------------------------------|
D|----------------------------------|
A|----------------------------------|
E|----------------------------------|

E|-7-------7------7------7-------|
B|---7-6-7--7-6-7--7-6-7--7-6-7--|
G|-------------------------------|
D|-------------------------------|
A|-------------------------------|
E|-------------------------------|

es mi parte viva en este mar...¡
E|----------------------------------|
B|-8-8-8-7-6-7-8-7-6-7-8-6-7-8-6-7--|
G|----------------------------------|
D|----------------------------------|
A|----------------------------------|
E|----------------------------------|

¡Oye tu que yo no estoy jugando,
E|-----------------------------------------------------|
B|-3-3-3-3-3-2-2-2-2-2-3-3-3-3-3-3-5-5-5-5-5-7-7-7-7-7-|
G|-----------------------------------------------------|
D|-----------------------------------------------------|
A|-----------------------------------------------------|
E|-----------------------------------------------------|

la musica es mi forma de expresar,
E|-3-3-3-3-3-2-2-2-2-2---------------------|
B|--------------------3-3-3-3-3-4-4-4-4----|
G|-----------------------------------------|
D|-----------------------------------------|
A|-----------------------------------------|
E|-----------------------------------------|

vivo en ella , y aunque a veces solo ando ,
E|--------------------------------------------|
B|-3-3-3-3-3-3-2-2-2-2-2-5-5-5-5-5-7-7-7-7-7--|
G|--------------------------------------------|
D|--------------------------------------------|
A|--------------------------------------------|
E|--------------------------------------------|

es mi parte viva
E|---------------------------|
B|-3-3-3-3-3-3-2-2-2-2-2-2---|
G|---------------------------|
D|---------------------------|
A|---------------------------|
E|---------------------------|

es mi parte viva
E|---------------------------|
B|-3-3-3-3-3-3-2-2-2-2-2-2---|
G|---------------------------|
D|---------------------------|
A|---------------------------|
E|---------------------------|

es mi parte viva
E|-------------------------------|
B|-3-3-3-3-3-3-2-2-2-2-2-2-2-2-0-|
G|-------------------------------|
D|-------------------------------|
A|-------------------------------|
E|-------------------------------|

E|---------------------------------------------------|
B|--4-5-5-4-5-5-4-5-5-4-5-5--------------------------|
G|--------------------------3-4-4-3-4-4-3-4-4-3-4-4--|
D|---------------------------------------------------|
A|---------------------------------------------------|
E|---------------------------------------------------|

E|---------------------------------------------------|
B|--4-5-5-4-5-5-4-5-5-4-5-5--------------------------|
G|--------------------------3-4-4-3-4-4-3-4-4-3-4-4--|
D|---------------------------------------------------|
A|---------------------------------------------------|
E|---------------------------------------------------|

es mi parte viva
E|--------------------------------------------|
B|-3-3-3-3-3-2-2-2-2-2--3-2-0-3-2-0-3-5-3-----|
G|--------------------------------------------|
D|--------------------------------------------|
A|--------------------------------------------|
E|--------------------------------------------|

es mi parte viva
E|----------------------------------4-3-2-----|
B|-3-3-3-3-3-2-2-2-2-2--3-2-0-3-2-0-----------|
G|--------------------------------------------|
D|--------------------------------------------|
A|--------------------------------------------|
E|--------------------------------------------|

es mi parte viva
E|---------------------------|
B|-3-3-3-3-3-3-2-2-2-2-2-2---|
G|---------------------------|
D|---------------------------|
A|---------------------------|
E|---------------------------|

es mi parte viva
E|---------------------------|
B|-3-3-3-3-3-3-2-2-2-2-2-2---|
G|---------------------------|
D|---------------------------|
A|---------------------------|
E|---------------------------|

es mi parte viva
E|---------------------------|
B|-3-3-3-3-3-3-2-2-2-2-2-2---|
G|---------------------------|
D|---------------------------|
A|---------------------------|
E|---------------------------|

(TERE NAS CON ESTAS NOTAS)

G  ,G  ,A 
Composición de Jorge rude boy
    • ½ Tono
    • Am
    • Bbm
    • Bm
    • Cm
    • C#m
    • Dm
    • Ebm
    • Em
    • Fm
    • F#m
    • Gm
    • G#m
  • Agregar a la lista

    0 comentarios

    Ver todos los comentarios

    ¿Lograste tocar?

    0 Tocaron 0 Aún no

    ¡Graba un video tocando Mi parte viva y envíanoslo!

    00:00 / 00:00
    Otros videos de esta canción
    Repetir Calidad Automático
    Otros videos de esta canción
    00:00 / 00:00
    Automático
    OK