Cifra Club

Todo va a estar bien

Los Estrambóticos

Cifrado: Principal (guitarra y guitarra eléctrica)
tono: Dm
Intro, con palm mute:

e>---------------------------------------------|
b>-3-3-3-3-3-3--5-5-5-5-5-5---6-----6--5--3----|
g>-3-3-3-3-3-3--5-5-5-5-5-5---7-----7--5--3----|
D>---------------------------------------------|
A>---------------------------------------------|
E>---------------------------------------------|

e>---------------------------------------------|
b>-3-3-3-3-3-3--5-5-5-5-5-5---6-6-6-6-6-6------|
g>-3-3-3-3-3-3--5-5-5-5-5-5---7-7-7-7-7-7------|
D>---------------------------------------------|
A>---------------------------------------------|
E>---------------------------------------------|

e>---------------------------------------------|
b>-6-6-6-6-6-6--5-5-5-5-5-5---3-3-3-3-3-3------|
g>-7-7-7-7-7-7--5-5-5-5-5-5---3-3-3-3-3-3------|  x 2 veces
D>---------------------------------------------|
A>---------------------------------------------|
E>---------------------------------------------|

e>---------------------------------------------|
b>-3-3-3-3-3-3--5-5-5-5-5-5---6----------------|
g>-3-3-3-3-3-3--5-5-5-5-5-5---7----------------|
D>---------------------------------------------|
A>---------------------------------------------|
E>---------------------------------------------|

e>-----17---|
b>-----18---|
g>-----19---|
D>----------|
A>----------|
E>----------|

Dm  C  Gm   Bb  x 2 veces

Dm
hey yo te doy
C
lo que quieres te lo doy
Gm                         Bb
escucho atentamente cuando hablas sin razon

Dm
sin mas me entregue
C
y te di mi corazon
Gm                          Bb
el que juegas diariamente cuando cambias de humor

Dm
no se que vas a ser
C
lo que sigue no lo se
Gm                           Bb
lo que hagas o desagas la verdad me viene bien

Dm
no se no lo se
C
lo que sigue no lo se
Gm                            Bb
solo espero que demuestres que eres lo que soñe


En esta parte va un pequeño riff con otra guitarra que va así:

e>---------------------------------------------------------|
b>---------------------------------------------------------|
g>---------------------------------------------------------|
D>---3-----3------2-2-3-2----------------------------------|
A>-5---5-5-----3----------3-1-----5-----5----8-----8-------|
E>------------------------------3---3-3----6---6-6---------|

e>---------------------------------------------------------|
b>---------------------------------------------------------|
g>------------------------3-2-0--0--0-2-3--3---------------|
D>---3-----3------2-2-3-2----------------------------------|
A>-5---5-5-----3-------------------------------------------|
E>---------------------------------------------------------|


Dm
y es que solo busco
C              Gm
una tierna mirada
Bb
apasionada

Dm
Y es que lo que quiero
C                Gm
es estar contemplado
Bb
Siempre a tu lado

Coro
Gm     C        Dm
todo va a estar bien
Gm     C        Dm
todo va a estar bien yo estoy bien
Gm     C        Dm
todo va a estar bien
Gm     C        Dm
todo va a estar bien

Dm
si ya lo se
C
lo que quieres ya lo se
Gm                              Bb
ser amigos ser amantes un hotel y un cafe

Dm
no hay mas ya lo se
C
te lo juro que lo se
Gm                               Bb
no hay problema yo lo entiendo y es que yo me equivoque


(rIFF)

Dm
te vas y te vas
C
siempre entras y te vas
Gm                                Bb
Me confundes al pensar que algun día daras de mas

Dm
yo se yo lo se
C
te lo  juro que lo se
Gm                                  Bb
y es que no eras para tanto otra vez me equivoque


Coro
Gm     C        Dm
todo va a estar bien
Gm     C        Dm
todo va a estar bien yo estoy bien
Gm     C        Dm
todo va a estar bien
Gm     C        Dm
todo va a estar bien  x 2 veces.


solo c/distor


e>-------------------------------------------------------------------|
b>-------------------------------------------------------------------|
g>----------7-7-7----------9-9-9-----------9-10-/12--10-9-h10-9--9/7-|
D>----------------8-8-8-8--------10-10-10----------------------------|
A>-------------------------------------------------------------------|
E>-------------------------------------------------------------------|

e>---------------------------------------------------|
b>---------------------------------------------------|
g>--7---------9-9-9----------9-10-12-10-9--12-10-9---|
D>----8-8-8-8------10-10-10--------------------------|
A>---------------------------------------------------|
E>---------------------------------------------------|

e>----------------------------------|
B>----------------------------------|
g>-12p9h10-12p9h10-12p9h10-12p9h10--|
D>----------------------------------|
A>----------------------------------|
E>----------------------------------|

e>--------------------------------------|
b>-13-13-13-13--------13-13-13-13-------|
g>-------------14-14-------------14-14--|
D>--------------------------------------|
A>--------------------------------------|
E>--------------------------------------|

e>----------------------------------------------|
B>13-13-13-13-----------------------------------|
g>------------14-14-14-14-14-14/7---------------|
D>----------------------------------------------|
A>----------------------------------------------|
E>----------------------------------------------|


e>------------------------------|
b>------------------------------|
g>---7/9---h10-p9-9-/7~---------|
D>------------------------------|
A>------------------------------|
E>------------------------------|


Dm
si ya lo se
C
lo que quieres ya lo se
Gm                           Bb
ser amigos ser amantes un hotel y un cafe

Dm
no hay mas yo lo se
C
te lo juro que lo se
Gm                             Bb
no hay problema yo lo entiendo y es que yo me equivoque

Dm
te vas y te vas
C
siempre entras y te vas
Gm                            Bb
Me confundes al pensar que algun dia daras de mas

Dm
yo se yo lo se
C
telo  juro que lo se
Gm                            Bb
y es que no eras para tanto otra vez me equivoque


Coro
Gm     C        Dm
todo va a estar bien
Gm     C        Dm
todo va a estar bien yo estoy bien
Gm     C        Dm
todo va a estar bien
Gm     C        Dm
todo va a estar bien  x 2 veces.

Gm    C    Dm x 2 veces


Coro
Gm     C        Dm
todo va a estar bien
Gm     C        Dm
todo va a estar bien yo estoy bien
Gm     C        Dm
todo va a estar bien
Gm     C        Dm
todo va a estar bien  x 2 veces.
Composición de A. Ruelas / C. Aguirre / D. Sanchez / Leo Añorve
    • ½ Tono
    • Am
    • Bbm
    • Bm
    • Cm
    • C#m
    • Dm
    • Ebm
    • Em
    • Fm
    • F#m
    • Gm
    • G#m
  • Agregar a la lista

    0 comentarios

    Ver todos los comentarios

    ¿Lograste tocar?

    0 Tocaron 0 Aún no

    ¡Graba un video tocando Todo va a estar bien y envíanoslo!

    00:00 / 00:00
    Otros videos de esta canción
    Repetir Calidad Automático
    Otros videos de esta canción
    00:00 / 00:00
    Automático
    OK