Notificações Amigos pendentes

      Los Hermanos

      Além do que se vê

      371 reproducciones
      Tono: C
      * Lembre-se que Los Hermanos toca com uma afinação meio tom
        abaixo. Portanto, a música original é tocada em Ab, não em A.
      
      * Usa-se na música, os acordes A e G, só que nessas posições:
        
      
          A que emenda   G .... O Dm, se faz em pestana na quinta casa
      e|--8--------------7---
      b|--10-------------8---
      g|--9--------------9---
      D|---------------------
      A|---------------------
      E|---------------------
      
      
      Usa-se os acordes abaixo ou a transcrição abaixo:
      
      E|-----------------------------------
      B|-----------------------------------
      G|-------------------------------1---
      D|-------------------------------2---
      A|-0-0--2---4-3-2--4-3-2---0-0---2---  (2x)
      E|-------------------------------0---
      
      
      A7+ Bm7
      Mo--ça 
      
      C#m7 Cm7 Bm7 C#m7  Cm7  E      A7+
      olha     só  o   que eu te escrevi
      
      E         A7+  Bm7 
      é preciso for--ça 
      
      C#m7 Cm7  Bm7   C#m7 Cm7 F#7
      pra  son--har e per--ce|--ber
      
              Bm7    E   Bm7      Dm D4 Dm
      que a estrada vai além do que se vê
      
      Essa passagem do Dm D4 Dm é feita da seguinte forma:
      
      
      e|----1-----3-----1h3p0--------|                
      B|----3---------------------3--|                                
      G|----2------------------------|                                                                                        
      D|----0------------------------|
      A|-----------------------------|
      E|-----------------------------|                         
      
      
      Sequência: Am, G (faz-se os respectivos) Dm, G (pestana na terceira casa), E7(b9) E7 Dm
      
      Sei que a tua solidão me dói
      e que é difícil ser feliz
      mas do que somos todos nós
      você supõe o céu
      Sei que o vento que entortou a flor
      passou também por nosso lar
      e foi você quem desviou
      com golpes de pincel
      
      
      E|-----------------------------------
      B|-----------------------------------
      G|-------------------------------1---
      D|-------------------------------2---
      A|-0-0--2---4-3-2--4-3-2---0-0---2--- 
      E|-------------------------------0---
      
      
      Eu sei, é o amor que ninguém mais vê
      Deixa eu ver a moça
      Toma o teu, voa mais
      que o bloco da família vai atrás
      
      Sequência: Am, G (faz-se os respectivos) Dm, G (pestana na terceira casa), E7(b9) E7 Dm
       
      Põe mais um na mesa de jantar
      por que hoje eu vou pra aí te ver
      e tira o som dessa TV
      pra gente conversar
      Diz pro bamba usar o violão
      pede pro Tico me esperar
      e avisa que eu só vou chegar
      no último vagão
      
      
      E|-----------------------------------
      B|-----------------------------------
      G|-------------------------------1---
      D|-------------------------------2---
      A|-0-0--2---4-3-2--4-3-2---0-0---2---  (2x) - Camelo
      E|-------------------------------0---
      
      
      É bom te ver sorrir
      Deixa vir à moça
      que eu também vou atrás
      e a banda diz: assim é q se faz!
      
      Am - F5 ... Faz-se isso na virada final da bateria do Barba.
      
      Sequência: Am, G (faz-se os respectivos) Dm, G (pestana na terceira casa), E7(b9) Dm
        Composición: Marcelo CameloColaboración y revision:
        • Leopoldino
        • hdiogenes
        • aham
        • Guilhermezinho

        Comentarios 19

        140 .
        • wallace wallace: Em 08/07/2016 21:37

          por favor manda vídeo aula

        • Gabriel Gabriel: Em 31/03/2016 15:03

          cade a video aula???????????????

        • Gabriel Gabriel: Em 31/03/2016 15:03

          cade a video aula

        • Charles Charles: Em 12/10/2015 14:43

          Essa musica merece uma video aula loool

        • israel israel: Em 07/08/2015 15:22

          Video Aulaaaaaaaaaaaaa!!!!!!!!!!

        • lucas.godinho.33 lucas.godinho.33: Em 27/02/2015 00:03

          Só dar uma olhada no Marcelo tocando que fica fácil.

          • taylor taylor: Em 09/04/2015 19:19

            Que fica fácil? Ele usa uns acordes impossíveis haha

        • Dyago Dyago: Em 25/12/2014 16:41

          video aula ia ser booooooom

        • Karol Karol: Em 09/12/2014 23:03

          Porra, vídeo aula gente

        • Daiane Daiane: Em 29/04/2014 16:50

          porra eu tomei uma coça pra aprender a tocar essa. Taquipariu, mas consegui o/

        140 cancelar

        ¿conseguiste tocar?

        • •••

        covers

        ¡Grave un vídeo tocando Além do que se vê y envie para nosotros!

        Ex.: http://www.youtube.com/watch?v=0IvSvIwGdwk
        ver cover de otras canciones »
        0:00 / 0:00

        Capitulos

          2 versões de contrabajo reproducciones contribuición y correción
          2 versões de Guitar Proformatodownloadscontribuición
          play/pausefechar subir/bajar velocidad
          6ª cuerda E5ª cuerda A4ª cuerda D3ª cuerda G2ª cuerda B1ª cuerda E
            acordes
            publicidad
            cerrar
            ok