Cifra Club

Deixa Estar

Los Hermanos

Cifrado: Principal (guitarra y guitarra eléctrica)
tono: C#m
[Intro]

(Guitarra e Baixo)

E|-----------------------------------------------------------------|
B|-----------------------------------------------------------------|
G|-----------------------------------------------------------------| (6x)
D|---------1------9--9-9-9--9-9-9--9-9-9---------------------------|
A|-----2-3---------------------------------------------------------|
E|--0--------------------------------------------------------------|

(Guitarra)

E|-----------------------------------------------------------------|
B|-----------------------------------------------------------------|
G|----------------------------------7------------------------------|
D|----------------------------9---9---9------7----5----------------|
A|-------7-9-10-9-----7-9-10------------10------7-----5------------|
E|-----------------10-------------------------------7--------------|

E|------------------------------------10---------------------------|
B|----------------------------12---12----12----10------------------|
G|-9-9-9-11-12-11----9-11-12----------------12----9-12-------------|
D|----------------12-----------------------------------9--12h13h14-|
A|-----------------------------------------------------------------|
E|-----------------------------------------------------------------|

( Em9 ) 
( Em  F#º  Fº(9) )

[Primeira Parte]

 C#m
Ligue, ligue, ligue
Ligue, ligue, para mim
Diga, diga, diga
Diga, diga que me ama, que 
        D#m7(b5)
Eu não vou mais implorar
     F#m7  G#           C#m
Se quer saber, deixa estar
 C#m
Digo que não ligo mas não 
Vivo sem você.. 
Falo, não me calo, tiro sarro só 
Pra ver se eu
    D#m7(b5)         A7   G#           
Consigo despertar o seu amor, deixa estar

( C#m7  E  C#m  F#  C#m7  E7 )
( Gm       )   

[Refrão]

    C#m7  F#7  C#m7 
Eu sei 
           F#            
Que na verdade eu 
        C#m       F#7       
Não consigo entender 
          C#m7  F#7  C#m7
O nosso amor
            F#7       C#m7
Que teu silêncio fala alto 
        F#6
No meu peito 
           D#m  G#7  D#m
E que nós dois
         G#7          D#m      
Estamos juntos na distância
       G#7          A#
Discrepância do destino

[Segunda Parte]

 C#m
Ziguezaguiando zonzo de 
Te procurar
Eu tranco no meu pranto o canto 
Alto de euforia que 
        D#m7(b5)
Eu queria te cantar
     F#m7   G#
Guardo pra mim
        C#m7
Deixa estar

C#m
Sei que fez um mês 
Entre vocês de união
Pouco muito pouco 
Quase nada, nesta estrada 
        D#m7(b5)
Você está na contramão
     F#m7  G#          
E a soli--dão, deixa estar

( C#m7  E C#m  F# C#m7 E7 )
( Gm       )   

[Refrão]

   C#m7  F#7  C#m7      
Vocês
       F#7
Vão aprender 
           C#m7
Que nesta vida não se 
 F#7         C#m7  F#7
Pode mais errar
           F#7    
Vão descobrir que entre 
       C#m7       F#7
As estrelas e o chão 
          D#m6  G#7  D#m6
Existe o mar
        G#7       D#m
E aí então a euforia 
Um belo dia 
        D#m  G#7
Vai passar.. 
      D#m          
E cairá sobre seu 
 G#7         G#7        
Mundo num segundo 
        A#
A traição

[Final]

E|-------------------------------------------------------|
B|-------------------------------------------------------|
G|-------------------------------------------------------|
D|--11-11-11-14-13-11--11-11-11-14-13-11-----------------|
A|-------------------------------------------------------|
E|-------------------------------------------------------|

E|-------------------------------------------------------|
B|-------------------------------------------------------|
G|-------9-----------------9-----------------------------|
D|-11-11---11-10--10-10-10---11p10-11--------------------|
A|-------------------------------------------------------|
E|-------------------------------------------------------|

E|-------------------------------------------------------|
B|-------------------------------------------------------|
G|-14------14-13-----------------------------------------|
D|---14-14--------14-14-14h16-14-13-11-------------------|
A|-------------------------------------------------------|
E|-------------------------------------------------------|

E|--------------------------------------------------------|
B|-----------------------------------------------------13-|
G|-------------------13-14-13-----------------------------|
D|-11-13h14-16h14p16----------16-14-16--14-13-11----------|
A|----------------------------------------------14-11h12--|
E|--------------------------------------------------------|

E|--------------------------------------------------------|
B|--------------------------------------------------------|
G|-------15-14----13-14----13-12----12-11----11-10--------|
D|-12-15-------12-------12-------12-------12-------12-----|
A|--------------------------------------------------------|
E|--------------------------------------------------------|

E|--------------------------------------------------------|
B|--------------------------------------------------------|
G|----10-9----9-8----8-6----------------------------------|
D|-12------12-----12--------------------------------------|
A|--------------------------------------------------------|
E|--------------------------------------------------------|

E|--------------------------------------------------------|
B|------------------------------9-14-14-14-14-------------|
G|-----------13-13-13-13-11--11---------------------------|
D|-11--11-11----------------------------------------------|
A|--------------------------------------------------------|
E|--------------------------------------------------------|

E|----------------12---12-13/b14-16-14h16-16/17\16--------|
B|----------12-b14---14-----------------------------------|
G|-10h11/13-----------------------------------------------|
D|--------------------------------------------------------|
A|--------------------------------------------------------|
E|--------------------------------------------------------|

E|-14-14\12----12----------------------------b16-b16\14--|
B|----------14----14-------------------------b14---------|
G|--------------------13\11-11-9-11-----9-11-b13---------|
D|-----------------------------------11------------------|
A|-------------------------------------------------------|
E|-------------------------------------------------------|

E|-12\--16\----------------------------------------------|
B|------13\----------------------------------------------|
G|------13\----------------------------------------------|
D|-------------------------------------------------------|
A|-------------------------------------------------------|
E|-------------------------------------------------------|

( C#m7  C#m7  C#m7 )
( D11+ )
( C#7(b9)  D7M  F#7  G# )

           C#m(7M)
Deixa estar
00:00 / 00:00
Otros videos de esta canción
Repetir
Otros videos de esta canción
Composición de Marcelo Camelo
Colaboración y revisión:
386 vistas
    • ½ Tono
    • Am
    • Bbm
    • Bm
    • Cm
    • C#m
    • Dm
    • Ebm
    • Em
    • Fm
    • F#m
    • Gm
    • G#m
  • Agregar a la lista

    0 comentarios

    Ver todos los comentarios

    ¿Lograste tocar?

    5 Tocaron 1 Aún no

    ¡Graba un video tocando Deixa Estar y envíanoslo!

    00:00 / 00:00
    OK