Cifra Club

Cuando llegue el alba

Los Huayra

Cifrado: Principal (guitarra y guitarra eléctrica)
tono: Bm
D         G                 D
Vieja soledad hoy me iré de ti
            E    A           D
buscando la luz, de una amanecer,
F#               Bm
cuando llegue el alba
G   D   A   D
viviré, viviré.

INTER: D - G - A - D

E|------4h5-5-----9/10-10-9-9-7-5h75-5-5~4-----------------5---|
B|--5~7-------7----------------------------7------------7--7---|
G|-------------7-----------------------------7-------------7---|
D|---------------------------------------------7-5--5/7----7---|
A|---------------------------------------------------------5---|
E|-------------------------------------------------------------|


Noche adentro ira, vencida de amor,
la tristeza gris, de mi corazón,
cuando llegue el alba
G   D   A   D    F#
viviré, viviré.

Bm                 A     G                D
A un costado del olvido, mis sueños maduraran,
D              E   A      D
reventando  en luz florecidos,
F#               Bm
cuando llegue el alba
G   D   A   D
viviré, viviré.

INTER: D - G - D / D - E - A - D

E|-----------------------7/10-9--9--7-7h9-7---7-|
B|-----------------------7/10-10-10-9-9---9-9---|
G|-------------------6-7------------------------|
D|-------------4-5-7----------------------------|
A|-5-5p4h5h7-7----------------------------------|
E|----------------------------------------------|

E|-9--9---------7/9---7-7-------------|
B|-10-10-5-7--8-9/10--9-9-5/8----10---|
G|-------6-8-9------------6/9-11------|
D|------------------------------------|
A|------------------------------------|
E|------------------------------------|

E|-------------------------5h7h5-4-------7-7~4-4---|
B|-------------------6/10--7---7-5----7--7-7~5-5-5-|
G|-------------------7/11------------7-------------|
D|-------------4-5-7----------------7--------------|
A|-5-5p4h5h7-7-------------------------------------|
E|-------------------------------------------------|

E|-----12-11h12h12-9--9--7-7-5-5-4h5h4-----5-|
5/12-12-12----12-10-10-9-9-7-7-5---5--3/5--
E|-------------------------------------------|
B|-------------------------------------------|
G|-------------------------------------------|
D|-------------------------------------------|


Encontrarte fue, intuición de Dios,
todo nace en ti, como nací yo,
cuando llegue el alba

Tus palabras son, fresco manantial,
sintiendo tu voz, aprendí a cantar,
cuando llegue el alba
viviré, viviré.

A un costado del olvido mis sueños madurarán,
reventando en luz florecidos,
cuando llegue el alba
viviré, viviré.


Espero les guste y aguante el folklore che!! jeje
Cualquier critica o consulta al correo!!
Chau
Edu, Salta-Capital
Compositor não encontrado.
9 vistas
    • ½ Tono
    • Am
    • Bbm
    • Bm
    • Cm
    • C#m
    • Dm
    • Ebm
    • Em
    • Fm
    • F#m
    • Gm
    • G#m
  • Agregar a la lista

    0 comentarios

    Ver todos los comentarios

    ¿Lograste tocar?

    0 Tocaron 0 Aún no

    ¡Graba un video tocando Cuando llegue el alba y envíanoslo!

    00:00 / 00:00
    Outros vídeos desta música
    Repetir Calidad Automático
    Outros vídeos desta música
    00:00 / 00:00
    Automático
    OK