Cifra Club

Cuando Te Vi

Los Huayra

Tablatura: Principal (guitarra)
Já pensou em usar uma coleção de roupas do Cifra Club? Responda as perguntas abaixo e nos ajude nessa missão! →
tono: G
[Intro] G  Em  C  D

G                       Em                       
Ella se desliza por las calles imponente 
         C
Como el mar,
                 D
Moviendo sus caderas al andar.

G                      Em                           
Ella se desliza y la vereda se estremece 
            C
Antes sus pies,
                   D           Riff
Que aumentan mis latidos al pasar.

B                 Em
Sus ojos iluminan toda mi ciudad,
D                          G
Y yo me quedo ciego al ver su claridad.
B                      Em
Como quisiera traducir su corazón,
     C          D
Al idioma de mi amor

[Refrão]

G                   Em                
Ay como puedo encontrar la señal que me 
          C
Lleve al fin
          D
Al verano de tu corazón.
G                      Em                    C
Ay aunque te quiero evitar no te puedo arrancar de Mi 
             D                       G
Porque eh perdido la razón cuando te vi.

( G  Em  C  D )

G                          Em                          C
Ella es un paisaje en movimiento es imposible de explicar,
               D
La miro y no parece realidad.
G                        Em                      
Ella es un infierno caminando con un modo 
     C
Angelical,
               D                 Riff
Es tan hermosa que no tiene igual.

B                     Em
Su pelo es un tatuaje que el aire pico,
D                     G
Y yo lo beso en cada sueño a donde voy,
B                     Em
Si ella pudiera presentir esta ilusión,
      C        D
Sentiría mi calor

[Refrão]

G                  Em                
Ay como puedo encontrar la señal que me 
          C
Lleve al fin
          D
Al verano de tu corazón.
G                      Em                    
Ay aunque te quiero evitar no te puedo 
            C
Arrancar de Mi 
             D                       G
Porque eh perdido la razón cuando te vi.

[Solo]

E|-10--8-7-5-3h5p3-2-3-------------------------------|
B|-12-10-8-7-5-----3-5-5------------------------3h4h5|
G|-----------------------4----------------2h4h5------|
D|-------------------------5--4--2| ?-2h4h5----------|
A|---------------------------------------------------|
E|---------------------------------------------------|

E|-3-3-------3-------3------3---3--5-7-5-7---8-10---|
B|---------------------------------7-8-7-8-10--12---|
G|-----5-4-5---5-4-5--5-4-5---5---------------------|
D|--------------------------------------------------|
A|--------------------------------------------------|
E|--------------------------------------------------|

E|-----10----9---8--7-------------------------------|
B|---10-----9---8---7-------------------------------|
G|-11-----10---9----8-------------------------------|
D|--------------------------------------------------|
A|--------------------------------------------------|
E|--------------------------------------------------|

B                      Em                            
Si ella pudiera presentir esta ilusión, 
 C            D 
Sentiría mi calor?

[Refrão]

G                    Em                
Ay como puedo encontrar la señal que me 
         C
Lleve al fin
          D
Al verano de tu corazón.
G                      Em                    
Ay aunque te quiero evitar no te puedo 
          C
Arrancar de Mi 
             D                       G
Porque eh perdido la razón cuando te vi.
Composição de Los Huayra
Colaboración y revision:
  • Facundo Leite
21 reproducciones
    • ½ Tono
    • A
    • Bb
    • B
    • C
    • Db
    • D
    • Eb
    • E
    • F
    • F#
    • G
    • Ab
  • Adicionar à lista

    0 comentarios

    Ver todos os comentários

    ¿Conseguiste tocar?

    0 Tocaram 0 Ainda não

    Grave um vídeo tocando Cuando Te Vi e nos envie!

    00:00 / 00:00
    outros vídeos desta música
    repetir qualidade Automático
    Outros vídeos desta música
    00:00 / 00:00
    Automático
    OK