Cifra Club

Canción del sur

Los Jaivas

Cifrado: Principal (guitarra y guitarra eléctrica)
Selo Cifra Club: esta cifra foi revisada para atender aos critérios oficiais da nossa Equipe de Qualidade.
tono: E
Intro:
           F7+d              F7+d              F7+d
E|-------------------------------------------------------------------|
B|-------------------------------------------------------------------|
G|-----------------2-----2-----------2-----2-----------2-----2-------|
D|--------------3-----3-----3-----3-----3-----3-----3-----3-----3----|
A|--3--2--0----------------------------------------------------------|
E|-----------1-----------------1-----------------1-------------------|

            E4                E4               E4
E|---------------------------------------------------------------------|
B|---------------------------------------------------------------------|
G|------------------2-----2-----------2-----2-----------2-----2--------|
D|---------------2-----2-----2-----2-----2-----2-----2-----2-----2-----|
A|---------0--2-----------------2-----------------2--------------------|
E|---1--3--------------------------------------------------------------|

           F7+d             F7+d               F7+d
E|------------------------------------------0--------------------------|
B|------------------------0-----0-----------------0--------------------|
G|------------------2-----------------2-----------------2-----0--------|
D|---------------3-----3-----3-----3-----3-----3-----3-----3-----------|
A|---3--2--0-----------------------------------------------------------|
E|------------1-----------------1-----------------1--------------------|

            E4               E4                 E
E|---------------------------------------------------------------------|
B|------------------------------------------------------------0--------|
G|------------------2-----2-----------2-----2----------| 1--------------|
D|---------------2-----2-----2-----2-----2-----2-----2-----2-----2-----|
A|---------0--2-----------------2--------------------------------------|
E|---1--3----------------------------------------0---------------------|

            A                 A                 A
E|---------------------------------------------------------------------|
B|---------------------------------------------------------------------|
G|------------------2-----2-----------2-----2-----------2-----2--------|
D|---------------2-----2-----2-----2-----2-----2-----2-----2-----2-----|
A|---4--2--0--0-----------------0-----------------0--------------------|
E|---------------------------------------------------------------------|

(En la 1ª parte de la estrofa se hace el mismo arpegio de la Intro)

            F7+d
Con toda el alma
         E4
dulzura mía
         F7+d
como una luna
          E4 - E
por la garganta
         A - A7
quiere salir
          D      (No sé muy bien cómo es el arpegio original en
quiere brotar    la parte de A - A7 - D - etc, porque el piano
F#        Bm     entra bien marcado y no se escucha mucho, pero
como canción     se puede hacer uno parecido al de la Intro.
E          A9    Igual Suena)
tanta ansiedad
F7+d       A9
como el murmullo
F7+d       A9
tambien se va.


(Aquí hay un puente de piano, en el cual la guitarra
lleva la base de F7+d y A9 con un arpegio como el de
la Intro. Luego hace lo siguiente)


E|----------0------------------0---------------------|
B|--------0---0--------------0---0-------------------|
G|------2-------0-0-0------2-------0-0-0--4/5p4------|
D|----2------------------2---------------------------|
A|--0------------------0-----------------------------|
E|---------------------------------------------------|

(Luego de este arpegio se repite la Intro y todo de nuevo
en la 2ª estrofa)


Siento el arrullo
de tu calor
noches y luces
traen la voz
del firmamento
A  cordillera
alta me espera
sobre las nubes
vuela el aliento
sobre las nubes
vuela el aliento.


(Aquí viene un interludio súper largo que aún no sé cómo es,
pero en el cual la guitarra no se nota mucho. Si se va a
hacer una interpretación solamente con guitarra, se puede
obviar, pero si va con todos los otros instrumentos es
necesario. La verdad, no estoy muy seguro de que esta parte
lleve guitarra, pero - por si acaso - igual lo menciono.
La base es F7+d - que se puede reemplazar por F - y A9)


Y finalmente, se repite el último trozo de la 2ª estrofa:
(a 2 voces)

A  cordillera
alta me espera
sobre las nubes
vuela el aliento
sobre las nubes
vuela el aliento


(Y termina haciendo un arpegio sobre las notas F7+d y
A9, similar al del 1er interludio)


E|----------0-------------------------------------------0------|
B|--------0---0----------------0---0------------------0---0----|
G|------2-------0-0-0------2-----------2---0--------2-------0--|
D|----2------------------3---3---3---3---3---3----2------------|
A|--0-------------------------------------------0--------------|
E|---------------------1---------------------------------------|



Nota: *No todas las versiones llevan los mismos arpegios. Por mi parte,
conozco 2 versiones: la original y la de la Gira Chile 2000, y pude
comprobar que los arpegios no son iguales, Ya que el Gato no siempre
hacía el mismo arpegio, creo que algunas veces improvisaba.


Acordes:

    F7+d   E4   A9
E|----0----0----0------|
B|----0----0----0------|
G|----2----2----2------|
D|----3----2----2------|
A|----3----2----0------|
E|----1----0-----------|
Otros videos de esta canción
    1.349 exhibiciones
      • ½ Tono
      • A
      • Bb
      • B
      • C
      • Db
      • D
      • Eb
      • E
      • F
      • F#
      • G
      • Ab
    • Agregar a la lista

    Afinación de cifrado

    Afinador online

      OK