Cifra Club

Mambo de machaguay

Los Jaivas

Cifrado: Principal (guitarra y guitarra eléctrica)
Selo Cifra Club: esta cifra foi revisada para atender aos critérios oficiais da nossa Equipe de Qualidade.
tono: C
Intro

primera parte

E|------------------------------|-----------------------------------|
B|------------------------------|--~--------------------------------|
G|------------------------12-11-|--12-11-----------------------X| 3--|
D|-----------12-14--12-14-------|--------14-12----------------------|
A|--12-14-15--------------------|--------------15--14-15-12---------|
E|------------------------------|-----------------------------------|

segunda parte

E|-------------15h17h15---------------------------------|
B|-------15-17----------17--17-17-15----15h17-----------|
G|-17-17-----------------------------17-----------------|
D|------------------------------------------------------|
A|------------------------------------------------------|
E|------------------------------------------------------|


E|-------------15h17h15---------------------------------|
B|-------15-17----------17--17-17-17-15----15h17--------|
G|-17-17-------------------------------17---------------|
D|------------------------------------------------------|
A|------------------------------------------------------|
E|------------------------------------------------------|


E|------------------------------------------------------|
B|-17-17-17--15-17--15h17h15----------------------------|
G|---------------------------17-17-17--14-17------------|
D|------------------------------------------------------|
A|------------------------------------------------------|
E|------------------------------------------------------|

E|------------------------------------------------------|
B|-17-17-17--15-17--15h17h15----------------------------|
G|---------------------------17-17-17--14-14~-----------|
D|------------------------------------------------------|
A|------------------------------------------------------|
E|------------------------------------------------------|

se vuelve a repetir todo y luego sigue esto:

E|------------------------------------------|--------17-15----------|
B|--17-15-----------------17-15-------------|---15-17-----17-15-----|
G|-------17-17-14-17------------17-17-14-17-|-17--------------------|
D|-------------------17---------------------|-----------------------|
A|------------------------------------------|-----------------------|
E|------------------------------------------|-----------------------|

E|----------------------------------------17-15-17----15----------|
B|-------------------17-15-------------------------17----17-15----|
G|--17-17-14-17------------17-17-14-14----------------------------|
D|--------------17------------------------------------------------|
A|----------------------------------------------------------------|
E|----------------------------------------------------------------|

E|-------------------------------------|---------17-15-------|
B|-------------------17-15-------------|----15-17-----17-15--|
G|--17-17-14-17------------17-17-14-17-|-17------------------|
D|--------------17---------------------|---------------------|
A|-------------------------------------|---------------------|
E|-------------------------------------|---------------------|

E|---------------------------------------------------|
B|-------------------17-15---------------------------|
G|--17-17-14-17------------17-17-14-14---------------|
D|--------------17-----------------------------------|
A|---------------------------------------------------|
E|---------------------------------------------------|

C
Desde Lima vengo a mi Machaguay,
desde Lima vengo a mi Machaguay,
a bailar el mambo de mi machaguay,
                              Am
a bailar el mambo de mi machaguay.

Por el cerro negro me la voy a llevar,
por el cerro negro me la voy a llevar,
a la maraqueña me la voy a robar,
a la maraqueña me la voy a robar.

coro

Mambo que rico el mambo, mambo del machaguay
mambo que rico el mambo, mambo del machaguay
mambo que rico el mambo, mambo del machaguay
mambo que rico el mambo, mambo del machaguay

C
Si tocan la puerta señora yo soy,
si tocan la puerta señora yo soy,
vengo a despedirme mañana me voy,
                             Am
vengo a despedirme mañana me voy.


-Luego viene el coro, y despues viene esto:

solo

E|-17-17-17-17-17-15----15-15h1715----15-17-15-15h17h15-----15-----------|
B|-------------------17------------17-~------------------17----17-15-----|
G|-------------------------------------------------------------------17--|
D|-----------------------------------------------------------------------|
A|-----------------------------------------------------------------------|
E|-----------------------------------------------------------------------|


E|-----------------------------------------------------------------------|
B|-17-17-17-17-17-15---15-15h17h15---------------------~-----------------|
G|-------------------17------------17-14--17h14----------17-14-----------|
D|----------------------------------------------17-14-17-----------------|
A|-----------------------------------------------------------------------|
E|-----------------------------------------------------------------------|


E|-----------------------------------|---------------15-17-15-17h15---15-|
B|-17-17-17--15h17-17-17--15h17-17-17|-17-15----15-17---------------17---|
G|-----------------------------------|-------17--------------------------|
D|-----------------------------------|-----------------------------------|
A|-----------------------------------|-----------------------------------|
E|-----------------------------------|-----------------------------------|


E|-17-17-17-17-17-15---15-15h17h15-----15-15h17h15-15h17h15--20~--17-----|
B|------------------17-------------17------------------------------------|
G|-----------------------------------------------------------------------|
D|-----------------------------------------------------------------------|
A|-----------------------------------------------------------------------|
E|-----------------------------------|-----------------------------------|

E|-20-17-15--17h15-------------------------------------------------------|
B|-----------------17-15---------17-17-15h17---17h15---15----------------|
G|-----------------------17--------------------------17---17~-14---------|
D|-----------------------------------------------------------------------|
A|-----------------------------------------------------------------------|
E|-----------------------------------------------------------------------|

E|---------------------------------------------------------------------|
B|--------------------------------~------15-17---15-17h15---15---------|
G|-17-17-17--14-17h14---14----------14-17-----------------17---17-14---|
D|--------------------17---17-----17-----------------------------------|
A|---------------------------------------------------------------------|
E|---------------------------------------------------------------------|

E|----------------------------15-17h15-17h15--15-17h15---15----|
B|-17-17-17-15h17-15h17-17-17---------------17---------17-~----|
G|-------------------------------------------------------------|
D|-------------------------------------------------------------|
A|-------------------------------------------------------------|
E|-------------------------------------------------------------|

E|-17-17-17-17-17-15-----15-17h15-17h15-17h15-17h15-17h15--20~-17---|
B|--------------------17-------------------------------~------------|
G|------------------------------------------------------------------|
D|------------------------------------------------------------------|
A|------------------------------------------------------------------|
E|------------------------------------------------------------------|

esta parte es muy rapida

E|-17/20-17h20-17h20-17h20-20-17h15----15-17h15-----15-------------------|
B|----------------------------------17-----------17----17h15-------------|
G|----------------------------------------------------------17-14-17h14--|
D|-----------------------------------------------------------------------|
A|-----------------------------------------------------------------------|
E|-----------------------------------------------------------------------|

E|---------------------------------------------------------------------|
B|------------17-15----------------------------------------------------|
G|------14-17-------17--14-17h14----------17-14------------------------|
D|-14-17-------------------------17-14-17------------------------------|
A|---------------------------------------------------------------------|
E|---------------------------------------------------------------------|

E|---------------------------------------------------------|
B|--17-15------------------17-17-17~--15-17h15---15--------|
G|--------17-17-14-17--------------------------17--17------|
D|--------------------17-----------------------------------|
A|---------------------------------------------------------|
E|---------------------------------------------------------|

E|-----------------------------------|
B|-----------------------------------|
G|--14-17h14----------17-14----------|
D|----------17-14-17-----------------|
A|-----------------------------------|
E|-----------------------------------|

E|----------------------------------------------------|
B|------------------15h17h15--17---15-17h15---15------|
G|-17-17-17~--14-17-------------------------17--17----|
D|----------------------------------------------------|
A|----------------------------------------------------|
E|----------------------------------------------------|

E|------------------------------|
B|------------------------------|
G|---14-17h14---14--------------|
D|------------17--17-14-17------|
A|------------------------------|
E|------------------------------|

luego sigue esto, se repite ocho veces:

E|------------------------------------------|
B|--17-15-----------------17-15-------------|
G|-------17-17-14-17------------17-17-14-17-|
D|-------------------17---------------------|
A|------------------------------------------|
E|------------------------------------------|

E|------------------------------------------|
B|--17-15-----------------17-15-------------|
G|-------17-17-14-17------------17-17-14-14-|
D|-------------------17---------------------|
A|------------------------------------------|
E|------------------------------------------|


luego la canción sigue con este ritmo, pero con la diferencia de que se
van agregando pequeñas partes que ya están explicadas anteriormente.

por ultimo, sigue esta parte:

E|--------17--15h17h15---15-------------------------------------------|
B|---15-17-------------17--17--15h17h15---15--------------------------|
G|-17-----------------------------------17---17--17-14----------------|
D|-----------------------------------------------------17-------------|
A|--------------------------------------------------------17-15-------|
E|--------------------------------------------------------------------|
Otros videos de esta canción
    3.199 exhibiciones
      • ½ Tono
      • A
      • Bb
      • B
      • C
      • Db
      • D
      • Eb
      • E
      • F
      • F#
      • G
      • Ab
    • Agregar a la lista

    Afinação da cifra

    Afinador online

      Ops (: Contenido disponible solo en portugués.
      OK