Cifra Club

Mira niñita

Los Jaivas

Cifrado: Principal (guitarra y guitarra eléctrica)
Selo Cifra Club: esta cifra foi revisada para atender aos critérios oficiais da nossa Equipe de Qualidade.
tono: Am
E|--------------------------------------------------------------------------|
B|--13~---12-12^13-13-13-13-12^13^12-------------12~------12-13----12-13-15-|
G|-----14----------------------------14-12~12-14----12~14-------14----------|
D|--------------------------------------------------------------------------|
A|--------------------------------------------------------------------------|
E|--------------------------------------------------------------------------|

E|--12^13-13-13-13~12^13^12^13^12-------------12-12^13^12^13^12----------|
B|--------------------------------15-13~13-15-------------------15~15~15~|
G|-----------------------------------------------------------------------|
D|-----------------------------------------------------------------------|
A|-----------------------------------------------------------------------|
E|-----------------------------------------------------------------------|

E|--------12-13-12^13^12-------| Este trill se repite 4 veces
B|--13-15----------------15-13-|
G|-----------------------------|
D|-----------------------------|
A|-----------------------------|
E|-----------------------------|

E|--------12-12^13^12^13^12----------------12-12^13-13~13~12^13^12----12-13^15-15~15~16~17~17~|
B|--13-15-------------------15~15~15~13~15-------------------------15-------------------------|
G|--------------------------------------------------------------------------------------------|
D|--------------------------------------------------------------------------------------------|
A|--------------------------------------------------------------------------------------------|
E|--------------------------------------------------------------------------------------------|

E|----------------------------------------------------------------------|
B|-----12-12^13~13-12-------12-12^13-13-12^13^12----------12-13~12~/////|
G|--14----------------14-14----------------------14-12~14---------------|
D|----------------------------------------------------------------------|
A|----------------------------------------------------------------------|
E|----------------------------------------------------------------------|
Otros videos de esta canción
    7.682 exhibiciones
      • ½ Tono
      • Am
      • Bbm
      • Bm
      • Cm
      • C#m
      • Dm
      • Ebm
      • Em
      • Fm
      • F#m
      • Gm
      • G#m
    • Agregar a la lista

    Afinación de cifrado

    Afinador online

      OK