Cifra Club

Si tú no estás

Los Jaivas

Cifrado: Principal (guitarra y guitarra eléctrica)
Selo Cifra Club: esta cifra foi revisada para atender aos critérios oficiais da nossa Equipe de Qualidade.
tono: D
Intro:

e-|-------------17---15----16-------|--------------15---------------|
B-|-15----15-18---------18-----17---|--15----15-18----18-17-15-17---|
G-|----15---------------------------|-----15------------------------|
D-|---------------------------------|-------------------------------|  x2


despues denuevo tocas la intro una sola vez
y esta parte viene por el minuto 1:02 tienes que escucharla bien y
buscarle los tiempos...

e-|-----------------------------------------|
B-|-18-18-18-18--18-18--15-17-18-15-17------|
G-|------------------------------------17---|
D-|-----------------------------------------|


B-|-17----15--13/15-15-15-15-17-18-17-15-17-|
G-|----17-----------------------------------|
D-|-----------------------------------------|
A-|-----------------------------------------|

B-|--18--15-17-18-17-15-18-17-15-17---|
G-|-----------------------------------|
D-|-----------------------------------|
A-|-----------------------------------|

despues tocas la intro en el minuto 2:41
y luego esto breve...

    2:48                                 2:51
e-|------------------------------------|-15------------15--------------|
B-|-18-18-18-18--18-18--15-17-18-15-17-|----17-18---17----18-17-15-17--|
G-|------------------------------------|-------------------------------|
D-|------------------------------------|-------------------------------|


y al final se repite la intro en el minuto 3:24
E|---------------------------------------------------------------------------|


Espero que les sirva, es mi primer tab asi que le puse el mayor
esfuerzo posible...
Como dije antes hay que ponerle harto oido para sacarla bien...
GRANDE A  MUBCA  CHILENA...
Otros videos de esta canción
    67 exhibiciones
      • ½ Tono
      • A
      • Bb
      • B
      • C
      • Db
      • D
      • Eb
      • E
      • F
      • F#
      • G
      • Ab
    • Agregar a la lista

    Afinação da cifra

    Afinador online

      Ops (: Contenido disponible solo en portugués.
      OK