Cifra Club

Sube a Nacer Conmigo Hermano

Los Jaivas

Cifrado: Principal (guitarra y guitarra eléctrica)
Selo Cifra Club: esta cifra foi revisada para atender aos critérios oficiais da nossa Equipe de Qualidade.
tono: E
introduccion : C#m  F#m G#   
 
 C#m  F#m  G#     G#   
sube a nacer conmigo hermano (2) 
C#m     F#m          G#   
dame la mano desde la profunda zona 
C#m     F#m      G#   
de tu dolor diseminado (3) 
no volveras, del fondo de las rocas 
no volveras, del tiempo subterraneo 
no vovera, tu voz endurecida 
no volveran, tus ojos taladrados 
sube a nacer conmigo hermanoo..... 
 
3\---------------------------------------5---------- 
4\-----6-4-7-4-6---------------6-4-7-4-6---6--------  FIG.(1) 
5\-4-7-----------6-3-----3-4-7-------------------3-4 
6\-------------------4-6---------------------4-6---- 
 
 
mirame desde el fondo de la tierra 
labrador, tejedor, pastor callado 
domador de guanacos tutelares 
albañil del andamio desafiado (3) 
aguador de las lagrimas andinas 
joyero de los dedos machacados 
agricultor temblando en la semilla 
alfarero en tu greda derramado (3) 
traed a la copa de esta nueva vida 
vuestros viejos dolores enterrados 
sube a nacer conmigo hermanooooo................ 
 
1\-14-16----------14-16-------------14-16-16-16-16-16-14------14-14-- 
2\-------16^17-16-------16^17-16-17----------------------17-16-----16 
 
1\-14/16-16-16-16--------------------------------------------------- 
2\----------------17-17-16-16-14-14-14-13---------14-14-14-14-16-14- 
3\----------------------------------------13-13-13------------------ 
 
2\----14-16-16----16^17-17-17-14-14------------------- 
3\-17----------17-------------------16-16-------14-13- 
4\----------------------------------------16-16------- 
 
 
mostradme vuestra sangre y vuestro surco 
decidme : aqui fui castigado 
porque la joya no brillo 
o la tierra no entrego a tiempo la piedra o el grano 
señaladme la piedra en que caisteis 
y la madera en que os crucificaron 
encendedme los viejos pedernales 
las viejas lamparas los latigos pegados 
a traves de los en las llagas 
y las hachas de brillo ensangrentado 
yo vengo a hablar por vuestra boca muertaaa.......FIG.(1) 
 
contadme todo cadena a cadena 
eslabon a eslabon, paso a paso 
afilad los cuchillos que guardasteis 
ponedlos en mi pecho y en mi mano 
como rios de rayos amarillos 
como un rio de tigres enterrados 
y dejadme llorar, horas, dias, años 
edades ciegas, ciclos estelares.FIG(1) 
 
4\-6^7^6^7^6^7^6^7^6^7^6^7^6---------------------   FIG.(2) 
5\---------------------------7^8^7^8^7/6^7^6^7^6- 
 
 
4\-6^7^6^7^6-6^7^6^7^6-6^7^6^7^6-   FIG.(3) 
 
 OJO QUE LA CANCION SIEMPRE VA CON LOS MISMOS ACORDES C#m - F#m - G#
Otros videos de esta canción
    5.544 exhibiciones
      • ½ Tono
      • A
      • Bb
      • B
      • C
      • Db
      • D
      • Eb
      • E
      • F
      • F#
      • G
      • Ab
    • Agregar a la lista

    Afinação da cifra

    Afinador online

      Ops (: Contenido disponible solo en portugués.
      OK