Cifra Club

Te diría

Los Piojos

Cifrado: Principal (guitarra y guitarra eléctrica)
tono: C
Intro: G   - G11    (x4)

      G             G11         F 
Si dijéramos que el día es la careta
      G               G11             F 
si dijeramos que en la noche está el tango
      G          G11          F 
si dijeramos que ya no tenés miedos
       G              G11         F 
cuando lo único que amás es el espanto

      F                        C 
Te diría que estás muerta mi amor
                   G   - G11   
por eso te estoy amando...

Si dijeramos que el sol cae sin ganas
en el cielo cuando el cielo está escapando
y la soledad es mas sola en la cama
y la luna es una lágrima sin llanto

Te diría que estas muerta mi amor
por eso te estoy amando...

Si dijeramos que nunca hubo tan bella
una noche como esta tuya y mía
si dijeramos que bajo las estrellas
tu mirada y mi mirada están perdidas

Te diría que estoy muerto mi amor
eso es lo que te diría

G    -  G11   
Na na na...

Yo te amaré...
hoy, hoy...

Gm   F 
Te diría...

Final: G   - G11    - G  

G  O:

E|-------------------------------------------------------------|
B|-------------------------------------------------------------|
G|-5-7-8-7-5-7-8-7-5--7--5-----5-7-8-7-5-7-8-7-5-7--5--8-------|
D|--------------------------6----------------------------------|
A|-------------------------------------------------------------|
E|-------------------------------------------------------------|

E|-------------------------------------------------------------|
B|-------------------------------------------------------------|
G|-5-7-8-7-5-7-8-7-5--7--5-----5-7-8-7-5-7-8-7-5-7--5--8--8/12-|
D|--------------------------6----------------------------------|
A|-------------------------------------------------------------|
E|-------------------------------------------------------------|

En lugar de F  creo que se puede tocar esto:

E|-------------------------------------------------------------|
B|-------------------------------------------------------------|
G|-8-7-5-8--7-5-8--7-5-8--7-5----------------------------------|
D|-------------------------------------------------------------|
A|-------------------------------------------------------------|
E|-------------------------------------------------------------|
Composición de Andrés Ciro Martínez
11 vistas
    • ½ Tono
    • A
    • Bb
    • B
    • C
    • Db
    • D
    • Eb
    • E
    • F
    • F#
    • G
    • Ab
  • Agregar a la lista

    0 comentarios

    Ver todos los comentarios
    00:00 / 00:00
    Outros vídeos desta música
    Repetir Calidad Automático
    Outros vídeos desta música
    00:00 / 00:00
    Automático
    OK