Cifra Club

La Voz de Los 80

Los Prisioneros

Cifrado: Principal (guitarra y guitarra eléctrica)
tono: B
Tabbed por KoTo & Elyulian

-Intro-

E|------------------------------------
B|------------------------------------
G|------------------------------------  X2
D|------------------------------------
A|-----6-6-7-7-9-9-------6-6-7-7-9-9--
E|-7-7---------------7-7--------------

-Versos-
      B       E       D        A
E|-2-----|-7-----|-5-----|-5------|
B|-2-----|-7-----|-5-----|-5------|
G|-2---4-|-7---9-|-5---7-|-5--6---|
D|-2---4-|-7---9-|-5---7-|-5----7-|
A|-2-----|-7-----|-5-----|-5----7-|
E|-x-----|-7-----|-5-----|-5------|


B             E
Algo grande esta naciendo
D             A
en la década de los ochenta

B            E
ya se siente la atmósfera
D        A
saturada de aburrimiento

B                      E
los hippies y los punk tuvieron la ocasión
D          A
de romper el estancamiento

B             E
en las garras de la comercialización
D             A
murió toda la buena intención

-Intro-

E|------------------------------------
B|------------------------------------
G|------------------------------------  X2
D|------------------------------------
A|-----6-6-7-7-9-9-------6-6-7-7-9-9--
E|-7-7---------------7-7--------------

-Versos- (Lo mismo que en el verso anterior/Como no verso anterior)

Las juventudes cacarearon bastante
y no convencen ni por solo un instante
pidieron comprensión, amor y paz
con frases hechas muchos años atrás

Deja la inercia de los setenta abre los ojos ponte de pie
escucha el latido sintoniza el sonido
agudiza tus sentidos date cuenta que estas vivo

-Coro-

     B       A      G#m       G
E|-2-----|-5-----|-4-----|-3------|
B|-2-----|-5-----|-4-----|-3------|
G|-2---4-|-5---7-|-4-----|-3--4---|
D|-2---4-|-5---7-|-4---6-|-3----5-|
A|-2-----|-5-----|-4---6-|-3----5-|
E|-2-----|-5-----|-4-----|-3------|

B
Ya viene
A
la fuerza
G#m
La voz de
G
los ochenta

B
Ya viene
A
la fuerza
G#m
La voz de
G
los ochenta
G#m
La voz de
G
los ochenta

-Intro-

E|------------------------------------
B|------------------------------------
G|------------------------------------  X2
D|------------------------------------
A|-----6-6-7-7-9-9-------6-6-7-7-9-9--
E|-7-7---------------7-7--------------

-Verso- (Lo mismo que en el verso anterior/Como no verso anterior)

En Roma, Lima y en Santander
la gente de tu edad no sabe que hacer
Santiago, Asunción y también Buenos Aires
bueno las cosas no están que arden
sangre latina necesita el mundo
roja furiosa y adolescente
sangre latina necesita el planeta
adiós barreras, adiós setentas

-Coro-

     B       A      G#m       G
E|-2-----|-5-----|-4-----|-3------|
B|-2-----|-5-----|-4-----|-3------|
G|-2---4-|-5---7-|-4-----|-3--4---|
D|-2---4-|-5---7-|-4---6-|-3----5-|
A|-2-----|-5-----|-4---6-|-3----5-|
E|-2-----|-5-----|-4-----|-3------|

B
Ya viene
A
la fuerza
G#m
La voz de
G
los ochenta

B
Ya viene
A
la fuerza
G#m
La voz de
G
los ochenta
G#m
La voz de
G
los ochenta

-Solo-

E|---------------------------------------------------|
B|----------9-12-9---7--9-9/10-7---5-7-7/8-----------|
G|---8-9-11--------9-------------7-----------6-6/9-6-| X4
D|-9---------------------------------------7---------|
A|---------------------------------------------------|
E|---------------------------------------------------|

En plena edad del plástico
seremos fuerza seremos cambio
no te conformes con mirar
en los ochenta tu rol es

        B                  D

E|-------------------|---------------|
B|-------------------|---------------|
G|-------------------|---------------|
D|---8-9-11---8-9-11-|--4-5-7--4-5-7-|
A|-9--------9--------|-5------5------|
E|-------------------|---------------|

      G      A       F#
E|-3-----|-5-----|-2-----|
B|-3-----|-5-----|-2-----|
G|-3-4---|-5-6---|-2-3---|
D|-3--5--|-5---7-|-2---4-|
A|-3--5--|-5---7-|-2---4-|
E|-3-----|-5-----|-2-----|

B
estelar
D
tienes la fuerza eres
B
actor principal
G
de las entrañas de nuestras ciudades
A
surge la piel
F#
que vestirá al mundo

-Coro-

     B       A      G#m       G
E|-2-----|-5-----|-4-----|-3------|
B|-2-----|-5-----|-4-----|-3------|
G|-2---4-|-5---7-|-4-----|-3--4---|
D|-2---4-|-5---7-|-4---6-|-3----5-|
A|-2-----|-5-----|-4---6-|-3----5-|
E|-2-----|-5-----|-4-----|-3------|

B
Ya viene
A
la fuerza
G#m
La voz de
G
los ochenta

B
Ya viene
A
la fuerza
G#m
La voz de
G
los ochenta
G#m
La voz de
G
los ochenta

-Versos-
      B       E       D        A
E|-2-----|-7-----|-5-----|-5------|
B|-2-----|-7-----|-5-----|-5------|
G|-2---4-|-7---9-|-5---7-|-5--6---|
D|-2---4-|-7---9-|-5---7-|-5----7-|
A|-2-----|-7-----|-5-----|-5----7-|
E|-x-----|-7-----|-5-----|-5------|

Escucha el murmullo, algo se siente venir
los últimos vientos de los setenta se mueren
mira nuestra juventud, que alegría mas triste y falsa
deja la inercia de los setenta abre los ojos ponte de pie
escucha el latido sintoniza el sonido
agudiza tus sentidos date cuenta que estas vivo.

-Coro-

B
Ya viene
A
la fuerza
G#m
La voz de
G
los ochenta

B
Ya viene
A
la fuerza
G#m
La voz de
G
los ochenta
G#m
La voz de
G
los ochenta

-Final-

E|--------------------------------------------------|
B|--------------------------------------------------|
G|--------------------------------------------------|
D|--------------------------------------------------|
A|--6-7-9---6-7-9---6-7-9---6-7-9---6-7-9---6-7-9-6-|
E|-7------7-------7-------7-------7-------7---------|
00:00 / 00:00
Otros videos de esta canción
Repetir
Otros videos de esta canción
Composición de Jorge Gonzalez
Colaboración y revisión:
  • Julian Vergara
4.467 vistas
    • ½ Tono
    • A
    • Bb
    • B
    • C
    • Db
    • D
    • Eb
    • E
    • F
    • F#
    • G
    • Ab
  • Agregar a la lista

    0 comentarios

    Ver todos los comentarios

    ¿Lograste tocar?

    1 Tocaron 2 Aún no

    ¡Graba un video tocando La Voz de Los 80 y envíanoslo!

    00:00 / 00:00
    OK