Cifra Club

Por qué los ricos?

Los Prisioneros

Cifrado: Principal (guitarra y guitarra eléctrica)
Selo Cifra Club: esta cifra foi revisada para atender aos critérios oficiais da nossa Equipe de Qualidade.
tono: F
Intro:
E|------|

   F   C   F   C 
   Am  A#  Am  G  

E|---------------------------------|
B|---------------------------------|
G|---------------------------------|
D|-------------------------3-1-----|
A|-----------------------------3-1-|
E|-1-----------4---1---------------|

Versos:
E|------|_

   F                      Am 
A. Van a sus colegios a jugar
   A#                           C 
   Con los curas con las monjas de la caridad
   F                           Am 
   Con sus cuerpos llenos de comida
   A#                   C 
   Crecen como europeos rubios y robustos

   A#                      F 
B. Les limpian el camino a la universidad
   G#                     D# 
   Llenan sus libretas de notas sin igual
   A#                F 
   Sus cabezas saben todo lo que hay
   G#   F# 
   Que responder

A. Y en las escuelas numeradas
   nos enseñan humildad y resignación
   nos explican de que esta demás
   intentar pensar si quiera en ser profesional

B. Tu educación es una porquería
   yo con esas notas ni si quiera trataría
   dedícate a ladrona bagó o esclavo
   G#   F#  C 
   y nunca trates de entender

Coro:
E|-----|

   F                  C 
C. Porque, porque los ricos
   F                  C 
   porque, porque los ricos
   Am                 A# 
   Tienen derecho a pasarlo tan bien
   Am                 C 
   tienen derecho a pasarlo tan bien

C. Porque, porque los ricos
   porque, porque los ricos
   Tienen derecho a pasarlo tan bien
   si son tan imbéciles como los pobres

   (Repite segunda parte del Intro)



A. Aquí van cruzando su ciudad
   taquillando en sus autos o en el de su papá
   disfrutando de la juventud
   del derecho heredero a ser los dueños de América del Sur

B. A veces unos tienen ganas de igualar
   forman entidades juegan a luchar
   discursos y recursos vida intelectual
   y todo sigue tan igual tan igual

C. Porque, porque los ricos
   porque, porque los ricos
   Tienen derecho a pasarlo tan bien
   si son tan imbéciles como los pobres

   A# 
D. Y los de arriba siguen
   C# 
   y los de abajo siguen
   D#                  F#        F 
   y nadie tiene ganas de ver un final
   A# 
   Si los de abajo creen
   C# 
   lo que de arriba dicen
   D#                        F#      G#         A# 
   en quien voy a confiar quizá al final me de igual

Solo:
E|-----|

E|--------------------------------------------------------------------|
B|-------------------------8-6---6--------------------8---------------|
G|-----------------7-8-10------8-------------------8-----5-5-5--7-5---|
D|-8-8-8--8--8-8-8-------------------8--8---8-8-8---------------------|
A|--------------------------------------------------------------------|
E|--------------------------------------------------------------------|

E|--------------------------------------------------------------------|
B|-------6-------6-11-10-8----------------------------8---------------|
G|----7-------7------------------------------------8-----5-5-5--7-5---|
D|-8-------8-------------------------8--8---8-8-8---------------------|
A|--------------------------------------------------------------------|
E|--------------------------------------------------------------------|

D. Dime porque . . .
   Dime porque . . .

C. Porque, porque los ricos
   porque, porque los ricos
   Tienen derecho a pasarlo tan bien
   si son tan imbéciles como los pobres

C. Tantos mercedes, tanta comida
   Porque, porque, dime porque
   Tantas palabras tantas mentiras
   Porque, dime porque
Otros videos de esta canción
    969 exhibiciones
      • ½ Tono
      • A
      • Bb
      • B
      • C
      • Db
      • D
      • Eb
      • E
      • F
      • F#
      • G
      • Ab
    • Agregar a la lista

    Afinación de cifrado

    Afinador online

      OK