Cifra Club

Que no destrocen tu vida

Los Prisioneros

Cifrado: Principal (guitarra y guitarra eléctrica)
tono: Dm
       Dm   Bb   F   A
       Dm   Bb   F   A 
E|-5----6---1---5---|
B|-6----6---1---5---|
G|-7----7---2---6---|
D|-7----8---3---7---|
A|-5----8---3---7---|
E|-x----6---1---5---|
Intro: Dm  Bb  F  A 

1)Rem      A# 
  Como empesar
  F              A 
  son tus padres y amigos
1)quieren estar
  en tu vida para siempre
1)tu y ella se aman tanto
  no arriesges mas
1)no permitas que sus canas
  te arrugen tan temprano

2)A #     La
  ooooohh oooooohh

Coro:
Que nO destrocen tu vida
E|-----------------888-88886-5-5/6------------------|
B|--6-5-6-8-6/5-X2-----------------888-88886-5-5/6--|
G|-7-7-7-7-7----------------------------------------|
D|--------------------------------------------------|
A|--------------------------------------------------|
E|--------------------------------------------------|
No dejes que destrocen tu vida
E|--------------------------------------------------|
B|--6-5-6-8-6/5-X2---6666--55555--6666--88888-------|
G|-7-7-7-7-7---------7777--66666--7777--99999-------|
D|--------------------------------------------------|
A|--------------------------------------------------|
E|--------------------------------------------------|

Verso 2 (serepite los mismo del verso 1):
Tienen razon
Te han ciudado 20 años
Eres de su piel
No estarias sin sus besos
Pero es tiempo que te dejen
No arriegues mas
No permitas que sus fracasos
te arrastren y te maten

2)ohhhhhhhhhhhhhhh ohhhhhhhhh

Coro

3)Gm       Bb                                  A
  no dejes que por nadie tu y ella se lleguen a odiar...no

 Luego la cancion termina con coros consecutivos donde pueden variar:

 Que nO destrocen tu vida
E|------------------8-8-8-8/10----10-10-10-10/12-|
B|--6-5-6-8-6/5-X2-------------------------------|
G|-7-7-7-7-7-------------------------------------|
D|-----------------------------------------------|
A|-----------------------------------------------|
E|-----------------------------------------------|

2) Cierra todas las puertas de tu casa...

 y sigue con los coros y los punteos
E|------------------|
B|--6-5-6-8-6/5-X4--|
G|-7-7-7-7-7--------|
00:00 / 00:00
Otros videos de esta canción
Repetir
Otros videos de esta canción
Composición de Jorge Gonzalez
42 vistas
    • ½ Tono
    • Am
    • Bbm
    • Bm
    • Cm
    • C#m
    • Dm
    • Ebm
    • Em
    • Fm
    • F#m
    • Gm
    • G#m
  • Agregar a la lista

    0 comentarios

    Ver todos los comentarios

    ¿Lograste tocar?

    0 Tocaron 0 Aún no

    ¡Graba un video tocando Que no destrocen tu vida y envíanoslo!

    00:00 / 00:00
    OK