Cifra Club

Quieren Dinero

Los Prisioneros

Cifrado: Principal (guitarra y guitarra eléctrica)
Selo Cifra Club: esta cifra foi revisada para atender aos critérios oficiais da nossa Equipe de Qualidade.
tono: C
     intro:

E|----------------------------------------------------------------|
B|----------------------------------------------------------------|
G|----------------------------------------------------------------|
D|----------2-0-----------2---2-0-----------1-0-------------------|
A|3-333-333-----3-1-111-1---1-------------------------------------|
E|--------------------------------1-111-111-----1-3-333-333-333-1-|

E|----------------------------------------------------------------|
B|----------------------------------------------------------------|
G|----------------------------------------------------------------|
D|----------2-0-----------2---2-0-----------1-0-------------------|
A|3-333-333-----3-1-111-1---1-------------------------------------|
E|--------------------------------1-111-111-----1-3-333-333-333-1-|

aqui entran los otros intrumentos

E|----------------------------------------------------------------|
B|----------------------------------------------------------------|
G|----------------------------------------------------------------|
D|----------2-0-----------2---2-0-----------1-0-------------------|
A|3-333-333-----3-1-111-1---1-------------------------------------|
E|--------------------------------1-111-111-----1-3-333-333-333-1-|

E|----------------------------------------------------------------|
B|----------------------------------------------------------------|
G|----------------------------------------------------------------|
D|----------2-0-----------2---2-0-----------1-0-------------------|
A|3-333-333-----3-1-111-1---1-------------------------------------|
E|--------------------------------1-111-111-----1-3-333-333-333-1-|

     en los versos:
       C     F   F  faº    C      faº
E|--0-----1---1-1------0-----1-1-----|
B|--1-----1---1-1------1-----1-1-----|
G|--0-----2---3-2------0-----2-2-----|
D|--2-----3---3-3------2-----3-3-----|
A|--3-----3---3-3------3-----3-3-----|
E|--3-----1---1-1------3-----1-1-----|

se puede hacer con 5tas también si quieren
º esos fa se repiten mas veces pero no es necesaria tanta rayita

pre coro
       D#    F      G  
E|---------------------------|
B|---------------------------|
G|---8----10-----------------|
D|---8----10-----5-----------|
A|---6----8------5-----------|
E|---------------3-----------|

E|---------------------------|
B|---------------------------|
G|---8----10-----------------|
D|---8----10-----5-5-5-------|
A|---6----8------5-5-5-------|
E|---------------3-3-3-------|





    CORO:quieren dinero

escuchen bien por que casi ni se nota lo que hace la guitarra,
 pero esto es
E|----------------------------------------|
B|----------------------------------------|
G|----------------------------------------|
D|---3-5555-3-5555--1-0-----| -------------
A|-----------------3----3-----------------|
E|----------------------------------------|

    despues del segundo coro:

E|------------------------|
B|------------------------|
G|------------------------x8|
D|--11111-0-0-------------|
A|------------3-----------|
E|------------------------|

    el final:

E|------3-------3-------3---------------------|
B|--1-3---3-1-3---3-1-3---3-------------------|
G|--------------------------------------------|
D|--------------------------------------------|
A|--------------------------------------------|
E|--------------------------------------------|
Otros videos de esta canción
    2.255 exhibiciones
      • ½ Tono
      • A
      • Bb
      • B
      • C
      • Db
      • D
      • Eb
      • E
      • F
      • F#
      • G
      • Ab
    • Agregar a la lista

    Afinación de cifrado

    Afinador online

      OK