Cifra Club

San Miguel

Los Prisioneros

Cifrado: Principal (guitarra y guitarra eléctrica)
tono: Em
Intro: Em -B 

Em 
Vez, como rueda la vida
Am       C 
vez encontré la salida
Em                    B        Am 
Vez en el fondo no ha pasado nada
Em 
Si hay que ocultar el abismo
Am     C 
Y perdonarse a si mismo
Em                    B      Am 
Con el espíritu del silencio


G  
No yo no estoy dañado
Am       C 
No tanto no he cambiado
B        C    D    Am 
Puedo volver a jugar
  C    D   Em 
Por San Miguel


PUNTEO INICIO :

E|------------------------------|
B|------------------------------|
G|------------------------------| x2
D|------------------------------|
A|--9-7-9-9-7-10-10-9-10-10-9---|
E|------------------------------|

E|------------------------------------|
B|------------------------------------|
G|------------------------------------|
D|------------------------------------|
A|-12-12-9-12-12-9-12-12-9-12-12-9-9-7|
E|------------------------------------|



Em            Am   C 
B  A  hice reeemal
            Em 
No voy a culpar
            B          Am 
Al código de injusticias
Em             Am   C 
Tu me viste salir
             Em 
Te voy a cumplir
            B          Am 
La vida que merecemos juntos


G  
No yo no estoy dañado
Am       C 
No tanto no he cambiado
B        C    D    Am 
Puedo volver a jugar
  C    D   Em 
Por San Miguel


Em          C 
San Miguel, San Miguel
    G               B 
Todavía es temprano para comenzar
Em          C 
San Miguel, San Miguel
   G             B 
Si tu corazón me quiere acompañar
E       D      C 
san miguel, san miguel



Em            Am   C 
B  A  hice reeemal
            Em 
No voy a culpar
             B         Am 
Al código de injusticias

no.........

G  O:

E|----------------------------------------------|
B|----------------------------------------------|
G|-----17-16-15--------17-16-15-----12-13-15----|
D|--12--------------14----------------------14--|
A|----------------------------------------------|
E|----------------------------------------------|

E|----------------------|
B|----------------------|
G|---13-15-17-----------| x4
D|---12-14-16-----------|
A|----------------------|
E|----------------------|


CORO FINAL

PUNTEO CORO:
E|---------------------------------------------|
B|---------------------------------------------|
G|---12-11-12-11-12-11-12-14/16-14-12-11-12-11-x2|
D|---------------------------------------------|
A|---------------------------------------------|
E|---------------------------------------------|

E           C 
San Miguel, San Miguel
   G             B 
El dulce perfume del amanecer
Em          C 
San Miguel, San Miguel
   G                B 
Te juro que siempre te voy a querer

E           C 
San Miguel, San Miguel
   G             B 
El dulce perfume del amanecer
Em          C 
San Miguel, San Miguel
   G                B 
Te juro que siempre te voy a querer

E       D      C 
san miguel
E       D      C 
san miguel
E       D      C 
san miguel
E       D      C 

Fin:

E|--------------------------------------------|
B|--------------------------------------------|
G|--------------------------------------------|
D|--------------------------------------------|
A|-----9-9-7-9-9-7-10-10-9-10-10-9------------| x2
E|--------------------------------------------|

E|--------------------------------------------|
B|--------------------------------------------|
G|--------------------------------------------|
D|--------------------------------------------|
A|---9-9-7-9-9-7-10-10-9-10-10-9-9-7------|
E|--------------------------------------------|



Hola espero les sirva esta pequeña transcripción de San Miguel.
Los punteos suenan similar a la canción y versiones en Vovi
que tocaron Los Prisioneros
00:00 / 00:00
Otros videos de esta canción
Repetir
Otros videos de esta canción
Composición de Jorge González
21 vistas
    • ½ Tono
    • Am
    • Bbm
    • Bm
    • Cm
    • C#m
    • Dm
    • Ebm
    • Em
    • Fm
    • F#m
    • Gm
    • G#m
  • Agregar a la lista

    0 comentarios

    Ver todos los comentarios

    ¿Lograste tocar?

    0 Tocaron 0 Aún no

    ¡Graba un video tocando San Miguel y envíanoslo!

    00:00 / 00:00
    OK