Cifra Club

Tren Al Sur

Los Prisioneros

Cifrado: Principal (guitarra y guitarra eléctrica)
tono: Am
Intro x 4

E|--8~---------8~------|---------12~-8~--|
B|----------------10~--|-----------------|
G|------7-9-10---------|--7-9-10---------|
D|---------------------|-----------------|
A|---------------------|-----------------|
E|---------------------|-----------------|


Verso 1:

 Am              F
Seis y media en la ma~ana
     Am            F
mi asiento toca a la ventana
     Am             F
estacion central segundo carro
        Am               F         Riff 1 x 2
del ferrocarril que me llevara al sur.


Riff 1:

E|-----------------|---------------|
B|-----------------|---------------|
G|--5~-------5~----|--------9~-5~--|
D|--------------7~-|---------------|
A|-----5-7-8-------|--5-7-8--------|
E|-----------------|---------------|


Verso 2 (Como Verso 1)

Y ya estos fierros van andando
mi corazon esta saltando
porque me llevan a las tierras
donde al fin podre de nuevo


(Sólo batería)
respirar adentro y hondo
alegrias del corazon.

      Intro x 2
ahhh..


Coro:

   G           C   Am
Y no me digas pobre
    Em     F      G
por ir viajando así
 G                   C   Am
no ves que estoy contento
    Em      F     G
no ves que voy feliz


Intro x 2


Verso 3 (Como Verso 1)

Doce y media en la ma~ana
el olor se mete en la ventana
son flores y animales
                             Riff 1
que me dicen bien venido al sur.


Verso 4 (Como Verso 1)

Yo recuerdo a mi papito
y no me importa estar solito
porque me llevan a las tierras
donde al fin podre de nuevo


(Sólo batería)
respirar adentro y hondo
alegrias del corazón
respirar
adentro y hondo
alegrias del corazón.


Coro 2 (Como Coro1)

Y no me digas pobre
por ir viajando asi
no ves que estoy contento
                  G
no ves que voy feliz
viajando en este tren
en este tren al sur.


Solo:

E|----------------------------------------| e--8h10-10-10-8-7-8-|
B|--13-10-13-10-13-10-13-10-13-10-13~-10~-| B-------------------|
G|----------------------------------------| x 2   G-------------------| x 4
D|----------------------------------------| D-------------------|
A|----------------------------------------| A-------------------|
E|----------------------------------------| E-------------------|

E|--12-12--12-13-12-10-| e--15-8-7-8-|      e--17-8-7-8-17-19-19/--|
B|---------------------| B-----------|      B----------------------|
G|---------------------| X 2   G-----------| X 2  G----------------------|
D|---------------------| D-----------|      D----------------------|
A|---------------------| A-----------|      A----------------------|
E|---------------------| E-----------|      E----------------------|


Coro 3 (Como Coro 1)

y no me digas pobre
por ir viajando asi
no ves que estoy contento
                    G
no ves que estoy feliz
viajando en este tren
en este tren al sur.
00:00 / 00:00
Otros videos de esta canción
Repetir
Otros videos de esta canción
Composición de Jorge Gonzalez
2.481 vistas
    • ½ Tono
    • Am
    • Bbm
    • Bm
    • Cm
    • C#m
    • Dm
    • Ebm
    • Em
    • Fm
    • F#m
    • Gm
    • G#m
  • Agregar a la lista

    0 comentarios

    Ver todos los comentarios

    ¿Lograste tocar?

    0 Tocaron 0 Aún no

    ¡Graba un video tocando Tren Al Sur y envíanoslo!

    00:00 / 00:00
    OK