Cifra Club

Tren Al Sur

Los Prisioneros

Chords: Principal (acoustic and electric guitars)
tone: Am
[Intro] Am  F  Am  F 
        Am  F  Am  F 

[Tab - Intro]

E|--8---------8---------------12------------|
B|--------------10--------------------------|
G|-----7-9-10----------7-9-10---------------|
D|------------------------------------------| (3x)
A|------------------------------------------|
E|------------------------------------------|

E|--8---------8---------------12------------|
B|--------------10--------------------------|
G|-----7-9-10--------9-7-9-10---------------|
D|------------------------------------------|
A|------------------------------------------|
E|------------------------------------------|

[Primeira Parte]

  Am              F
Siete y media en la mañana
     Am            F
Mi asiento toca a la ventana
      Am             F
Estación central, segundo carro
        Am               F        
Del ferrocarril que me llevará al sur

( Am  F  Am  F )
( Am  F  Am  F )

[Tab - Interlúdio 1]

E|------------------------------------------|
B|------------------------------5-----------|
G|--5-------5-------------------------------|
D|--------------7---------------------------| (2x)
A|----5-7-8------------7-5-7-8--------------|
E|------------------------------------------|

[Segunda Parte]

   Am               F
Y ya estos fierros van andando
    Am        F
Mi corazón esta saltando
     Am          F
Porque me llevan a las tierras
 Am              F
Donde al fin podré de nuevo

Respirar adentro y hondo

Alegrias del corazón

( Am  F  Am  F )
( Am  F  Am  F )

[Tab - Interlúdio 2]

E|--8---------8---------------12------------|
B|--------------10--------------------------|
G|-----7-9-10--------9-7-9-10---------------|
D|------------------------------------------|
A|------------------------------------------|
E|------------------------------------------|

E|--8---------8---------------12------------|
B|--------------10--------------------------|
G|-----7-9-10----------7-9-10---------------|
D|------------------------------------------|
A|------------------------------------------|
E|------------------------------------------|

[Refrão]

   G           C  Am
Y no me digas pobre
    Em     F      G
Por ir viajando así
                     C  Am
No ves que estoy contento
    Em      F     G
No ves que voy feliz

( Am  F  Am  F )
( Am  F  Am  F )

[Tab - Interlúdio 3]

E|--8---------8---------------12------------|
B|--------------10--------------------------|
G|-----7-9-10----------7-9-10---------------|
D|------------------------------------------| (2x)
A|------------------------------------------|
E|------------------------------------------|

[Terceira Parte]

 Am             F
Dos y media en la mañana
     Am             F
El olor se mete en la ventana
      Am         F
Son flores y mis animales
  Am           F           
Que me dicen bienvenido al sur

( Am  F  Am  F )

[Tab - Interlúdio 4]

E|--8---------8---------------12------------|
B|--------------10--------------------------|
G|-----7-9-10----------7-9-10---------------|
D|------------------------------------------|
A|------------------------------------------|
E|------------------------------------------|

[Quarta Parte]

 Am            F
Yo recuerdo a mi papito
   Am              F
Y no me importa estar solito
     Am          F
Porque me llevan a las tierras
 Am              F
Donde al fin podré de nuevo


Respirar adentro y hondo

Alegrias del corazón

Respirar adentro y hondo

Alegrias del corazón

[Refrão 2]

   G           C  Am
Y no me digas pobre
    Em     F      G
Por ir viajando así
                     C  Am
No ves que estoy contento
    Em      F     G
No ves que voy feliz
            G4     G
Viajando en este tren
   G4     G      G4  G
En este tren al sur

[Solo] Am  F  Am  F  Am  F 
       Am  F  Am  F  Am  F 
       Am  F  Am  F

[Refrão 2]

   G           C  Am
Y no me digas pobre
    Em     F      G
Por ir viajando así
                     C  Am
No ves que estoy contento
    Em      F     G
No ves que voy feliz
            G4     G
Viajando en este tren
   G4     G      G4  G
En este tren al sur

( Am  F  Am  F )
( Am  F  Am  F )
( Am  F  Am  F )
( Am  F  Am  F  Am  F )

[Tab - Interlúdio 5]

E|--8---------8---------------12------------|
B|--------------10--------------------------|
G|-----7-9-10----------7-9-10---------------|
D|------------------------------------------| (4x)
A|------------------------------------------|
E|------------------------------------------|

E|--8---------8-----------------------------|
B|------------------------------------------|
G|-----7-9-10-------------------------------|
D|------------------------------------------|
A|------------------------------------------|
E|------------------------------------------|

[Ponte]

Tren al sur, tren al sur
  Am
Tren al sur, tren al sur

[Tab - Ponte - 5x]

E|--8---------8---------------12------------|
B|--------------10--------------------------|
G|-----7-9-10----------7-9-10---------------|
D|------------------------------------------|
A|------------------------------------------|
E|------------------------------------------|

E|--8---------8---------------12------------|
B|--------------10--------------------------|
G|-----7-9-10--------9-7-9-10---------------|
D|------------------------------------------|
A|------------------------------------------|
E|------------------------------------------|

  Am     F  Am  F 
Tren al sur
  Am     F  Am  F 
Tren al sur
  Am     F  Am  F 
Tren al sur
  Am     F  Am  F 
Tren al sur
  Am     F  Am  F 
Tren al sur
  Am     F  Am  F 
Tren al sur
  Am     F  Am  F 
Tren al sur
  Am     F  Am  F 
Tren al sur

[Final] Am  F  Am  F
00:00 / 00:00
Other videos of this song
Repeat
Other videos of this song
Composed by Jorge Gonzalez
Collaboration and Review:
  • Bruno Meneses
13.741 views
    • ½ Tone
    • Am
    • Bbm
    • Bm
    • Cm
    • C#m
    • Dm
    • Ebm
    • Em
    • Fm
    • F#m
    • Gm
    • G#m
  • Add to list
    00:00 / 00:00
    OK