Cifra Club

Usted y su ambición

Los Prisioneros

Cifrado: Principal (guitarra y guitarra eléctrica)
tono: D
Intro:


E|-----------------|
B|-----------------|
G|---7b9--7b9--5---|
D|---7b9--7b9------|
A|-----------------|
E|-----------------|



Riff 1: (x 2 veces)

        A          G          D          F 
E|--5-5--5-5---7-7--7-7---5-5--5-5---5-5--5-5---|
B|--5-5--5-5---8-8--8-8---7-7--7-7---6-6--6-6---|
G|--6-6--6-6---7-7--7-7---7-7--7-7---5-5--5-5---|
D|--7-7--7-7---9-9--9-9---7-7--7-7---7-7--7-7---|
A|--x-x--x-x---x-x--x-x---x-x--x-x---x-x--x-x---|
E|--x-x--x-x---x-x--x-x---x-x--x-x---x-x--x-x---|




  *(Cuando empieza la letra de la canción,
   las notas son las mismas que las del RIFF 1,
   Con la unica diferencia de CUANTAS VECES A S TOCA).


           A           G  
        Yo le Conosco bién,

        D            F 
        Pero es tan facil ver

            A              G  
        Sus mil batallas de cada dia

        D               F 
        Sus sorisas de hipocresía

         A                 G  
        Sale de su cueva, monten su auto

         D               F 
        pisa con recelo, por el asfalto

         A                G  
        Noche y dia concentrado en un fin

        D                      F 
        Y las caras duras en el maletín.



          * UUUUUUUUUUUUUUUUUU
E|-------------|
B|-------------|
  *Riff 2  3 |-------------|  (X 8 veces)
D|---------0---|
A|------3------|
E|---1---------|


    (Se repite lo mismo en las estrofas siguientes)





Solo:


E|----------------------------------------------------------------------|
B|-7b8r7--5----------------------------------------------5--------------|
G|-----------7--------5---------------5--7--7b9r7--5--------5-----------|
D|--------------7--5-----7--7---5--7------------------7--------7v--7--7-|
A|----------------------------------------------------------------------|
E|----------------------------------------------------------------------|

E|----------------------------------------------------------------------|
B|-----------------------------------------------7s8--8--8--------------|
G|--------------------------------------5-----5--8s9--9--9--7--5--7-----|
D|-------------------------7--5--7--7v-----7-------------------------7v-|
A|-7--5--7--5--7--5--7--5-----------------------------------------------|
E|----------------------------------------------------------------------|

E|----------------------------------------------------------------------|
B|-------------------------------------------------------------5v----5--|
G|--------------------------------------------5-5-5-5-5--5--7-----7-----|
D|-------5s7--7v--7v-------5------------------7-7-7-7-7-----------------|
A|--5s7---------------5s7-----7v-7v-7v---5s7----------------------------|
E|----------------------------------------------------------------------|

E|----------------------------------------------------------------------|
B|---8v--7--5-----------5----------------5------------5-5---------------|
G|-------------7--5--7----7--5-----5--------5--7-----------------5--7v--|
D|------------------------------7-----7-----------7v-------7--5---------|
A|----------------------------------------------------------------------|
E|----------------------------------------------------------------------|

E|------------------------------|
B|------5-----------------------|
G|---5--| --5--7-----------------|
D|---------------7v-------------|
A|----------------------7v-7v---|
E|------------------------------|

          * UUUUUUUUUUUUUUUUUU
E|-------------|
B|-------------|
  *Riff 2  3 |-------------|
D|---------0---|
A|------3------|
E|---1---------|




    En esta parte donde la letra dice algo asi:

  'Habladora miente suda......'

    Deben acompañar al teclado con el siguiente


E|---------------------------------------------|
B|---------------------------------------------|
G|---7-6--7-6--7-6--7-6---5-4--5-4--5-4--5-4---|
D|---7-7--7-7--7-7--7-7---5-5--5-5--5-5--5-5---|
A|---------------------------------------------|
E|---------------------------------------------|
Composición de Jorge Gonzalez
8 vistas
    • ½ Tono
    • A
    • Bb
    • B
    • C
    • Db
    • D
    • Eb
    • E
    • F
    • F#
    • G
    • Ab
  • Agregar a la lista

    0 comentarios

    Ver todos los comentarios

    ¿Lograste tocar?

    0 Tocaron 0 Aún no

    ¡Graba un video tocando Usted y su ambición y envíanoslo!

    00:00 / 00:00
    Otros videos de esta canción
    Repetir Calidad Automático
    Otros videos de esta canción
    00:00 / 00:00
    Automático
    OK